Oops, an error
Loading. Please wait.

The Silence Tab

version 1
version 1

Intro

Whole song

Interactive

23,811 views 18 this week
7 commentsread comments
1 2 3 4 5
accurate
x 5
add to favorites
launch autoscroll
font size
0
reset
how to read this tab
guitar tuner
Tab Pro tools
  • play this tab
  • loop segment
  • change instrument
  • show fretboard
  • metronome
Autoscroll
slow
fast
+/-
esc
set tempo
stop
Contributor
Difficulty
Tuning
novice
D A D G B E
DROP D TUNNING
Check out this cover of "The Silence" http://www.youtube.com/watch?v=XVBMeeC83RQ

Intro:
|------------------------------|
|--------3-2-3-2-3-------3-2---|
|---4-4-4----------2-2-2-----2-|
|------------------------------|
|------------------------------|
|------------------------------|x4

Verse:
|----------------------|
|----------------------|
|--4-------------------|
|--4---------5----2---5| repeat intro and then verse twice
|--2---------5----2---5|
|------------5----2---5|

Play this right before the chorus:
|----|
|----|
|----|
|xxxx|
|xxxx|
|xxxx|

Chorus:
|----------------------------------------------------------------------------|
|----------------------------------------------------------------------------|
|----------------------------------------------------------------------------|
|5----7-----9-----5-----7----9----7----2----0----5-----2----9----7----5----7-|
|5----7-----9-----5-----7----9----7----2----0----5-----2----9----7----5----7-|
|5----7-----9-----5-----7----9----7----2----0----5-----2----9----7----5----7-|

Intro
Verse
Bridge:
|------------------------------|
|------------------------------|
|------------------------------|
|9----12----7----5-----9-----12|
|9----12----7----5-----9-----12|
|9----12----7----5-----9-----12|

Post-Bridge:
|-----------------------|
|-----------------------|
|-----------------------|
|9~--------9-----12----5|
|9~--------9-----12----5|
|9~--------9-----12----5|

Play the chorus twice

Ending:
|------|
|------|
|------|
|2---5~|
|2---5~|
|2---5~|
comments
print report bad tab
7 comments total. Showing first comments.
0 reply
rockandpartyJon wrote on October 13 2009, 11:52 am

Dude you and I are the only ones who posted a tab on this, like 10 websites stole our tabs

-1 reply
Curtis_H wrote on November 9 2009, 12:53 pm

alright,i think this is kinda wrong. This is what my ear thinks, just that little difference
Intro:
|-------------------------------|
|--------3-2-3-2-3-------3-2----|
|---4-4-4----------2-2-2-----4-2|
|-------------------------------|
|-------------------------------|
|-------------------------------|x4

+1 reply
Lissiex wrote on December 19 2009, 07:57 am

Nah, there is a slide in there somewhere.

I think I hear

|--------------------------------|
|---------3-2-3-2-3-------3-2----|
|---4-4-4-----------2-2-2------2-|
|--------------------------------|
|--------------------------------|
|--------------------------------|x4

I want to post or [tab]
guest
You may want to rate the tab now too:
select rating
Please do not post tabs as comments. Select "correction" instead!