Oops, an error
Loading. Please wait.

The Silence Tab

version 3
version 3

Whole song

Interactive

829 views 1 this week
no commentswrite comment
1 2 3 4 5
please rate
add to favorites
launch autoscroll
font size
0
reset
how to read this tab
guitar tuner
Autoscroll
slow
fast
+/-
esc
set tempo
stop
Help us to improve Ultimate-Guitar.com Take our survey!
×
Contributor
Artist: Mayday Parade
Song: The Silence
Album: Anywhere But Here
Tabbed by: gustavoaraujo999@hotmail.com

I know this isn't a great tab, but I didn't like the way the
other one was written so I made this. enjoy!

[Intro x4]
e|----------------------------------|
B|----------------------------------|
G|-------7-6-7-6-7--------7-6-7p6---|
D|-9-9-9-----------7-7-7---------h7-|
A|----------------------------------|
E|----------------------------------|

[Verse]
e|------------------------|
B|------------------------|
G|-4444-------------------|
D|-4444-5555-2222-5555----|
A|-2222-5555-2222-5555----|
E|------3333-0000-3333----|
PM .... .... .... ....

[Interlude]
e|----------------|
B|----------------|
G|----------------| (play intro twice)
D|-9~--5~--9~--2~-| (during interlude)
A|-9~--5~--9~--2~-|
E|-7~--3~--7~--0~-|

[Verse]

[Pre-chorus]
e|------------------------|
B|------------------------|
G|-4444-------------------|
D|-4444-5555-22222222-----|
A|-2222-5555-22222222-----|
E|------3333-00000000-----|
PM .... .... ....

[Chorus]
e|---------------------|---------------------|
B|---------------------|---------------------|
G|---------------------|---------------------|
D|-5555-7777-9999-9999-|-5555-7777-9999-9999-|
A|-5555-7777-9999-9999-|-5555-7777-9999-9999-|
E|-3333-5555-7777-7777-|-3333-5555-7777-7777-|

e|---------------------|---------------------|
B|---------------------|---------------------|
G|-----------7777------|---------------------|
D|-5555-2222-7777-7777-|-9999-7777-5555-7777-|
A|-5555-2222-5555-7777-|-9999-7777-5555-7777-|
E|-3333-0000------5555-|-7777-5555-3333-5555-|

[Interlude]

[Verse]

[Interlude]

[Pre-chorus]

[Chorus]

[Bridge]
e|--------------|-----------|------------|
B|--------------|-----------|------------|
G|------7777-77-|-----------|-------7777-|
D|9999--7777-77-|-5555-2222-|--9999-7777-|
A|9999--5555-55-|-5555-2222-|--9999-5555-|
E|7777----------|-3333-0000-|--7777------|

e|-7-7-7-7--|
B|-7-7-7-7--| (I know this is wrong but I   )
G|-8-7-7-8--| (have no idea what to put here)
D|-9-9-7-7--|
A|-9-9-9-9--|
E|-7-7-7-7--|

e|---------------------|
B|---------------------|
G|-----------4444-7777-|
D|-2222-5555-4444-7777-|
A|-2222-5555-2222-5555-|
E|-0000-3333-----------|
PM .... .... .... .... 

[Pre-chorus]

[Chorus]

[Outro 1]
e|---------------------|---------------------|
B|---------------------|---------------------|
G|---------------------|---------------------|
D|-5555-7777-9999-9999-|-5555-7777-9999-9999-|
A|-5555-7777-9999-9999-|-5555-7777-9999-9999-|
E|-3333-5555-7777-7777-|-3333-5555-7777-7777-|

[Outro 2]
e|------------------|
B|------------------|
G|------7777-77-----|
D|9999--7777-77--9~-|
A|9999--5555-55--9~-|
E|7777-----------7~-|
Suggest correction new What's this?
You can suggest a correction to this tab. Community and Mods will review your correction and vote to approve or reject it.
comments
We did not receive enough feedback on this tab! Please rate:
print report bad tab
1 2 3 4 5
guest
You may want to rate the tab now too:
select rating
Please do not post tabs as comments. Select "correction" instead!