Oops, an error
Loading. Please wait.

Three Cheers For Five Years Acoustic Chords

version 2
version 2

Whole song

Interactive

8,876 views 3 this week
no commentswrite comment
1 2 3 4 5
accurate
x 5
add to favorites
launch autoscroll
font size
0
reset
transpose
0
reset
- display chords -
guitar tuner
Tab Pro tools
  • play this tab
  • loop segment
  • change instrument
  • show fretboard
  • metronome
×
Best way to learn
"Three Cheers For Five Years Acoustic"
Autoscroll
slow
fast
+/-
esc
set tempo
stop
Contributor
Difficulty
advanced
Best acoustic version out there of Mayday Parade's : Three Cheers For Five Years, 
written in the original key: B Major. Enjoy!


Capo: 4


Chords:

      B    F#/A#   G#m     E
e|----3------3------3------3------|
B|----3------3------3------3------|
G|----0------2------0------0------|
D|----0------0------2------2------|
A|----2------0------2------3------|
E|----3------2------0------X------|


INTRO/VERSE 1:

Pick the intro and the 1st verse (repeat until the Pre-Chorus)

e|----------------------------------|----------------------------------|
B|---------3---------------3--------|---------3---------------3--------|
G|-5-0-5-0---0-5-0-5-0-5-0---0-5-0--|---0---0---0---0---0---0---0---0--|
D|----------------------------------|-4---4-------4---4---4-------4----|
A|----------------------------------|----------------------------------|
E|----------------------------------|----------------------------------|

e|----------------------------------|----------------------------------|
B|---------3---------------3--------|---------3---------------3-----3--|
G|---0---0---0---0---0---0---0---0--|---0---0---0---0-2---2-----2------|
D|-2---2-------2---2---2-------2----|-0---0-------0-----5---5-----5----|
A|----------------------------------|----------------------------------|
E|----------------------------------|----------------------------------|

(If picking is too difficult just strum the chords)

                              B
I swear that you dont have to go
                                F#/A#
I thought we could wait for the fireworks
                                G#m
I thought we could wait for the snow
                         E
To wash over Georgia and kill the hurt
                               B
I thought I could live in your arms
                         F#/A#
And spend every moment I had with you
                           G#m
Stay up all night with the stars
                             E
Confess all the faith that I had in you


PRE-CHOURS:

(Begin strumming)

G#m              F#/A#    B
Too late, Im sure and lonely

Another night, another dream wasted on you
G#m             F#/A#     B
Just be here now against me

You know the words so sing along for me baby


CHORUS:

B            F#/A#              G#m
For heaven's sake I know you're sorry
                   E
But you won't stop crying
          F#/A#                   B
This anniversary may never be the same
         F#/A#             G#m
Inside I hope you know I'm dying
                E
With my heart beside me
             F#/A#                      G#m
In shattered pieces that may never be replaced
         F#/A#
And if I died right now you'd never be the same


INTERLUDE/VERSE 2:
  (B)                                (F#/A#)
e|----------------------------------|----------------------------------|
B|---------3---------------3--------|---------3---------------3--------|
G|-5-0-5-0---0-5-0-5-0-5-0---0-5-0--|---0---0---0---0---0---0---0---0--|
D|----------------------------------|-4---4-------4---4---4-------4----|
A|----------------------------------|----------------------------------|
E|----------------------------------|----------------------------------|

                                     G#m
  (E)      I thought with a month of apart
e|----------------------------------|
B|---------3---------------3--------|
G|---0---0---0---0---0---0---0---0--|
D|-2---2-------2---2---2-------2----|
A|----------------------------------|
E|----------------------------------|

                          F#/A#
Together would find us an opening
                                B
And moonlight would provide the spark

And that I would stumble across the key
                               G#m
Or break down the door to your heart
                         F#/A#
Forever could see us not you and me
                            B
And youd help me out of the dark

And Id give my heart as an offering


PRE-CHOURS:

G#m          F#/A#        B
Too late, Im sure and lonely

Another night, another dream wasted on you
G#m     F#/A#            B
Just be here now against me

You know the words so sing along for me baby


CHORUS:

B            F#/A#              G#m
For heaven's sake I know you're sorry
                   E
But you won't stop crying
          F#/A#                   B
This anniversary may never be the same
         F#/A#             G#m
Inside I hope you know I'm dying
                E
With my heart beside me
             F#/A#                      G#m
In shattered pieces that may never be replaced
         F#/A#
And if I died right now you'd never be the same


OUTRO:

    G#m    F#/A#    E                 B
And I will always remember you as you are right now to me
    G#m    F#/A#    B                 E
And I will always remember you now, remember you now

   E                    F#/A#        G#m
So sleep alone tonight with no one here just by your side
            B
Sleep alone tonight

G#m
How does he feel, how does he kiss?
F#/A#
How does he taste while he's on your lips?
G#m
How does he feel, how does he kiss?
F#/A#
How does he taste while he's on your lips?
G#m
How does he feel, how does he kiss?
F#/A#
How does he taste while he's on your lips?

G#m
I can't forget you
  F#/A#
I know you want me to want you I want to
    G#m
But I can't forget you
   F#/A#
So when this is over don't blow your composure, baby
G#m
I can't forget you
  F#/A#
I know you want me to want you I want to
    G#m
But I can't forget you
   F#/A#
So when this is over don't blow your composure, baby
G#m
I can't forget you
  B
I know you want me to want you, I want to
comments
print report bad tab
I want to post or [tab]
guest
You may want to rate the tab now too:
select rating
Please do not post tabs as comments. Select "correction" instead!