Oops, an error
Loading. Please wait.

Three Cheers For Five Years Bass Tab

version 1
version 1

Whole song

Interactive

13,624 views 3 this week
2 commentsread comments
1 2 3 4 5
x 11
add to favorites
launch autoscroll
font size
0
reset
guitar tuner
Autoscroll
slow
fast
+/-
esc
set tempo
stop
Help us to improve Ultimate-Guitar.com Take our survey!
×
Artist: Mayday Parade
Bassist: Jeremy Lenzo
Song: Three Cheers For Five Years
Album: Tales Told By Dead Friends
Tabbed By: Lewis [lewis_mason21@hotmail.com]

A few bits where timing matters, but straightforward otherwise!

Key:
~: Let Note Ring
x: Stop Note Dead

[Tuning: Standard - E,A,D,G]


Intro:
G|----------REST----------|
D|----------REST----------|
A|----------REST----------|
E|----------REST----------|


Verse One: [Note: Come in after he sings "go"]
("I swear that you don't have to go" ... "All the faith that I had in you")
G|----------------------------------------------------------------------|
D|----------------------------------------------------------------------|
A|-22222222222222222-1111111111111111-----------------------------------|
E|------------------------------------4444444444444444-2222222222222222-| [x2]


Pre-Chorus: [Note: Remeber to stop that last E quickly!]
("Too late, I'm sure and lonely" ... "So sing along for me baby")
G|---------------------|
D|---------------------|
A|---------------------|
E|-4~---2~---0~---0~---|

G|-------------------------------------------------------|
D|-------------------------------------------------------|
A|-------------------------------------------------------|
E|-4444444444444444-2222222222222222-0000000000000000-0x-|


Chorus:
("For heaven's sake" ... "You'd never be the same")
G|------------------------------------|
D|------------------------------------|
A|-22222222---------------------------|
E|----------00000000-4444444444444444-|

G|--------------------------------|
D|--------------------------------|
A|--------------------------------|
E|-0000000000000000-222222222222x-|

G|------------------------------|
D|------------------------------|
A|-22222------------------------|
E|-------00000-4444444444444444-|

G|-----------------------------------|
D|-----------------------------------|
A|-----------------------------------|
E|-0000000000000000-2222222222222222-|

G|----------------------------------|
D|----------------------------------|
A|----------------------2~/7~-------|
E|-0000000000000000-2~---------0~---|


Verse Two:
("I thought with a month" ... "My heart as an offering")
G|----------------------------------------------------------------------|
D|----------------------------------------------------------------------|
A|-22222222222222222-1111111111111111-----------------------------------|
E|------------------------------------4444444444444444-2222222222222222-| [x2]


Pre-Chorus: [Note: Stop that last E quickly]
("Too late, I'm sure and lonely" ... "So sing along for me baby")
G|---------------------|
D|---------------------|
A|---------------------|
E|-4~---2~---0~---0~---|

G|-------------------------------------------------------|
D|-------------------------------------------------------|
A|-------------------------------------------------------|
E|-4444444444444444-2222222222222222-0000000000000000-0x-|


Chorus:
("For heaven's sake" ... "You'd never be the same")
G|------------------------------------|
D|------------------------------------|
A|-22222222---------------------------|
E|----------00000000-4444444444444444-|

G|--------------------------------|
D|--------------------------------|
A|--------------------------------|
E|-0000000000000000-222222222222x-|

G|------------------------------|
D|------------------------------|
A|-22222------------------------|
E|-------00000-4444444444444444-|

G|-----------------------------------|
D|-----------------------------------|
A|-----------------------------------|
E|-0000000000000000-2222222222222222-|

G|-------------------------------------|
D|-------------------------------------|
A|----------------------222~-777~------|
E|-0000000000000000-22~-----------0~---|


Bridge One: [Note: After that first part, it's the guitar only for a small bit before coming back in]
("And I will always remember you" ... "Remember you now")
G|-------------------------|
D|-------------------------|
A|-22222--22222-77-66-99-9-|
E|-------------------------|

G|---------------------------------------------------------------------|
D|---------------------------------------------------------------------|
A|-2222222222222222-7777777777777777-----------------------------------|
E|-----------------------------------2222222222222222-0000000000000000-|

e|------------------------------------------------------------------------------------------|
B|------------------------------------------------------------------------------------------|
G|------------------------------------------------------------------------------------------|
D|------------------------------------------------------------------------------------------|
A|-2222222222222222-7777777777777777--------------------------------------------------------|
E|-----------------------------------2222222222222222-0000000000000000-222222222222-22-22x--|


Bridge Two: [Note: There's bass here I think, but I can't quite work it out, corrections appreciated!]
("So sleep alone" ... "Just by your side")
G|----------REST----------|
D|----------REST----------|
A|----------REST----------|
E|----------REST----------|


Bridge Three:
("How does he feel" ... "When he's on your lips")
G|----------------------------------------------------------------------|
D|----------------------------------------------------------------------|
A|-22222222222222222-1111111111111111-----------------------------------|
E|------------------------------------4444444444444444-2222222222222222-| [x3]


Bridge Four:
("I can't forget you" ... "I want to")
G|----------------------------------------------------------------------|
D|----------------------------------------------------------------------|
A|-----------------------------------2222222222222222-7777777777777777--|
E|-0000000000000000-2222222222222222------------------------------------| [x2]

G|----|
D|----|
A|----|
E|-0~-|
Suggest correction
comments
print report bad tab
2 comments total.
0 reply
s.m.guitar 10 Apr 11, 2009 11:26 AM

umm... awsome... Lol seriously. It is. Thanks!
Steph x

0 reply
AlphaXTaco 10 Sep 29, 2013 11:26 PM

Great tabs! Helped out so much!

guest
You may want to rate the tab now too:
select rating
Wanna post a correction for this tab? Suggest correction