Oops, an error
Loading. Please wait.

Walk On Water Or Drown Tab

version 1
version 1

Whole song

14,610 views 3 this week
5 commentsread comments
1 2 3 4 5
accurate
x 5
add to favorites
launch autoscroll
font size
0
reset
how to read this tab
guitar tuner
Autoscroll
slow
fast
+/-
esc
set tempo
stop
Help us to improve Ultimate-Guitar.com Take our survey!
×
Author
Tuning
D A D G B E
this song is off the newest CD that came out a few days ago.
just so you know, the CD is pretty good.
and i'm gonna try to tab out this song.

p.s. if the strumming is wrong, i apologize.
p.s.s. i think there's 3 guitars, but i'm not sure. if there is it's probably the same as the 2nd guitar.

GUITAR 1 PART!

Intro/Chorus:
e|------x------------x------------------x----------------------------|
B|------x------------x------------------x----------------------------|
G|--7-7-x-9-9--12-12-x-9-9-9/11-11--7-7-x-9-9--12-12-14-9-9-9/11-11--|
D|--x-x-x-x-x---x--x-x-x-x-x/-x--x--7-7-x-x-x---x--x--x-x-x-x/-x--x--|
A|--5-5-x-7-7--10-10-x-7-7-7/-9--9--5-5-x-7-7--10-10-12-7-7-7/-9--9--|
D|------x------------x------------------x----------------------------|

e|-----------|
B|-----------|
G|--7-66-7~--|
D|--7-66-7~--|
A|--5-44-5~--|
D|-----------|

Verse:
Let the last note ring for the first part of the verse.

You left the room...
e|-----------|
B|-----------|
G|--7~--14~--|
D|--x----x---| 
A|--5~--12~--|
D|-----------|

e|------------------------------------|
B|------------------------------------|
G|--7-----------7----------6----------|
D|----9--(16x)----7--(8x)----7--(8x)--|
A|------------------------------------|
D|------------------------------------|

Pre-Chorus:
e|----------------------------|
B|----------------------------|
G|--7--99--11--11-11--11--11--|
D|--x--xx---x---x--x---x---x--| Play this 3x.
A|--5--77---9---9--9---9---9--|
D|----------------------------|

e|-----------|
B|-----------|
G|--9--------|
D|--x-(16x)--|
A|--7--------|
D|-----------|

Chorus 
Verse
Pre-Chorus
Chorus 

Interlude:
e|------------------------------------------------|
B|------------------------------------------------|
G|--7-------9--------12-------14--9-9--11-11--11--|
D|--x-(6x)--x-(10x)---x-(6x)---x--x-x---x--x---x--| Play this 2x
A|--5-------7--------10-------12--7-7---9--9---9--|
D|------------------------------------------------|

Bridge:
e|------------|
B|------------|
G|--14--------|
D|---x-(32x)--|
A|--12--------|
D|------------|

(Not so sure about this part)
e|---------------------------------------------------|
B|---------------------------------------------------|
G|----------7-------9---------------9-------11-------|
D|--0-------x-(4x)--x-(4x)--7-------x-(4x)---x-(4x)--|
A|--0-(8x)--5-------7-------7-(8x)--7--------9-------|
D|--0-----------------------7------------------------|

e|-----------------|
B|-----------------|
G|--777-6777-------|
D|--xxx-xxxx-(7x)--|
A|--555-4555-------|
D|-----------------|

Pre-Chorus

Then this
e|------x----------------------------------------------------|
B|------x----------------------------------------------------|
G|--7-7-x-9~-------------------------------------------------|
D|--x-x-x-x---9/--(no guitar one for the rest of this part)--|
A|--5-5-x-7~--9/---------------------------------------------|
D|------x-----9/---------------------------------------------|

Chorus
Interlude

End on
e|-------|
B|-------|
G|--14~--|
D|---x---|
A|--12~--|
D|-------|


GUITAR 2 PART!

Intro/Chorus:
e|------x----------x-----|
B|------x----------x-----|
G|--7-7-x----------x-----|
D|--7-7-x-0-0--5-5-x-7-7-| Play this 2x.
A|--5-5-x-0-0--5-5-x-7-7-|
D|------x-0-0--5-5-x-7-7-|

e|-----------|
B|-----------|
G|-----------|
D|--5-77--9~-|
A|--5-77--9~-|
D|--5-77--9~-|

Verse:
Let the last note ring for the first part of the verse.
e|----------------------|
B|----------------------|
G|----------------------|
D|--0~--7~--9~--0~--7~--|
A|--0~--7~--9~--0~--7~--|
D|--0~--7~--9~--0~--7~--|

Pre-Chorus:
e|-------------------|
B|-------------------|
G|-------------------|
D|--5--77--9-99-9-9--|   Play this 3x.
A|--5--77--9-99-9-9--|
D|--5--77--9-99-9-9--|

e|-----------|
B|-----------|
G|-----------|
D|--7--------|
A|--7-(16x)--|
D|--7--------|

Chorus
Verse
Pre-Chorus
Chorus

Interlude:
e|----------------------------------------------------------------------|
B|----------------------------------------------------------------------|
G|--7-------------------------------------------------------------------|
D|--7-(6x)--0--------5-------7--------9-------0--------5-------7--------|
A|--5-------0-(10x)--5-(6x)--7-(10x)--9-(6x)--0-(10x)--5-(6x)--7-(10x)--|
E|----------0--------5-------7--------9-------0--------5-------7--------|

Bridge:
e|-----------------------------------------------|
B|-----------------------------------------------|
G|-----------------------------------------------|
D|--5--------7--------9--------5--------7--------|
A|--5-(16x)--7-(16x)--9-(32x)--5-(16x)--7-(16x)--|
D|--5--------7--------9--------5--------7--------|

e|-----------------|
B|-----------------|
G|-----------------|
D|-999--7999-------|
A|-999--7999-(7x)--|
D|-999--7999-------|

Pre-Chorus

Then this
e|------x---------x-----|
B|------x---------x-----|
G|--7-7-x---------x-----|
D|--7-7-x-0~--5-5-x-7-7-| 
A|--5-5-x-0~--5-5-x-7-7-|
D|------x-0~--5-5-x-7-7-|

e|------x----------------------|
B|------x----------------------|
G|--7-7-x----------------------|
D|--7-7-x-0-0--5-------7-------|
A|--5-5-x-0-0--5-(8x)--7-(8x)--|
D|------x-0-0--5-------7-------|

Chorus
Interlude

End on:
e|------|
B|------|
G|------|
D|--7~--|
A|--7~--|
D|--7~--|
Suggest correction
comments
print report bad tab
5 comments total. Showing first comments.
0 reply
adslam3 1,342 wrote on January 28 2008, 01:00 am

i liked it...5 stars

+1 reply
OKrocker 10 wrote on May 22 2008, 03:40 pm

e|------x----------x-----|
B|------x----------x-----|
G|------x----------x-----|
D|--9-9-x-0-0--5-5-x-7-7-|
A|--9-9-x-0-0--5-5-x-7-7-|
D|--9-9-x-0-0--5-5-x-7-7-|

i think this is the rythm

0 reply
StevoIRL 30 wrote on August 19 2008, 03:15 pm

E||--------x--------------x--|---------------------------------|
B||--------x--------------x--|---------------------------------|
G||--7--7--x--6--6--2--2--x--|--12--12--12s--9--9--9s--11s--7--|
D||--x--x--x--x--x--x--x--x--|---x---x---x---x--x--x----x---x--|
A||--5--5--x--4--4--0--0--x--|--10--10--10---7--7--7----9---5--|
D||--------x--------0--0--x--|---------------------------------|


--------x--------------x--|-----------------------------------|
--------x--------------x--|-----------------------------------|
--7--7--x--6--6--2--2--x--|--12--12--12s--14s--7--9s--11s--9--|
--x--x--x--x--x--x--x--x--|---x---x---x----x---x--x----x---x--|
--5--5--x--4--4--0--0--x--|--10--10--10---12---5--7----9---7--|
--------x--------0--0--x--|-----------------------------------|

Thats the intro your intro makes no sense as the song is clearly going down in octaves while your going up! This is how it should be played!

guest
You may want to rate the tab now too:
select rating
Wanna post a correction for this tab? Suggest correction