Oops, an error
Loading. Please wait.

When I Get Home Youre So Dead Bass Tab

version 1
version 1

Whole song

Interactive

12,085 views 3 this week
2 commentsread comments
1 2 3 4 5
accurate
x 7
add to favorites
launch autoscroll
font size
0
reset
guitar tuner
Tab Pro tools
  • play this tab
  • loop segment
  • change instrument
  • show fretboard
  • metronome
×
Best way to learn
"When I Get Home Youre So Dead"
Autoscroll
slow
fast
+/-
esc
set tempo
stop
Contributor
Difficulty
Tuning
intermediate
D A D G B E
Artist: Mayday Parade
Bassist: Jeremy Lenzo
Song: When I Get Home, You're So Dead
Album: A Lesson In Romantics
Tabbed By: Lewis [lewis_mason21@hotmail.com]

Bass for this song is relatively easy, a few quiter little notes and fills you can miss though!

Key:
~: Let Note Ring
/: Slide Up
\: Slide Down
h: Hammer On
p: Pull Off

[Tuning: Drop D - D,A,D,G]


Intro: [Note: Just the flamenco guitar for a bit, come in after he says "end like this"]
("The words are coming" ... "One hundred times")
G|-----------------------------------------------|
D|-----------------------------------------------|
A|----------5/77-----------5/77---------5/77-----|
D|-7-777-7-------3-333-3--------0-000-0------0-0-|


Verse One:
("Cause baby, you weren't" ... "You're not worth it anymore")
G|------------------------------------|
D|------------------------------------|
A|------------------------------------|
D|-77777777-33333333-0000000000000000-|

G|--------------------------------|
D|--------------------------------|
A|--------------------------------|
D|-77777777-33333333-00000000-0-0-|


Chorus:
("Say hello to all the boys" ... "Girls make boys cry")
G|------------------------------------|
D|------------------------------------|
A|------------------------------------|
D|-77777777-33333333-55555555-2-2-3-3-| [x4]



Verse Two: [Note: First part is before lyrics enter, listen closely for the octaves later]
("And I...  On any other day" ... "For such a simple little wh*re")
G|-------------|
D|-------------|
A|-------------|
D|-7~---3~--0~-|

G|------------------------------------|
D|------------------------------------|
A|------------------------------------|
D|-7777777777777777-33333333-00000000-|

G|------------------------------------|
D|------------------------------------|
A|------------------------------------|
D|-7777777777777777-33333333-0000-0-0-|

G|------------------------------------|
D|------------------------------------|
A|-------------------------------5-5--|
D|-7-7-7-77-3-3-3-33-0-0-0-0-0-0--0-0-|

G|------------------------------|
D|------------------------------|
A|------------------------------|
D|-7-7-7-77-3-3-3-33-000-000-7~-|


Chorus:
("Say hello to all the boys" ... "Girls make boys cry")
G|------------------------------------|
D|------------------------------------|
A|------------------------------------|
D|-77777777-33333333-55555555-2-2-3-3-| [x4]


Bridge One:
("And your name" ... "This pretty face")
G|------------------------------------|
D|------------------------------------|
A|------------------------------------|
D|-7777777777777777-33333333-00000000-| [x2]


Bridge Two: [Note: Listen hard for that little fill]
("So pull the trigger" ... "But never start over")
G|------------------------------------------|
D|------------------------------------------|
A|--------------------------------------5h7-|
D|7777-7-7--7777-7-7--3333-3-3--333-7p5-----|

G|----------------------------------|
D|----------------------------------|
A|----------------------------------|
D|7777-7-7--7777-7-7--3333-3-3--0-0-|


Chorus: [Note: Come in when he says "under"]
("Say hello to all the boys" ... "Girls make boys cry")
G|---------------------------------|
D|---------------------------------|
A|---------------------------------|
D|-22--3-333--5~--3-333333-2-22h3\-|

G|------------------------------------|
D|------------------------------------|
A|------------------------------------|
D|-77777777-33333333-55555555-2-2-3-3-| [x2]


Outro:
("Say hello, say hello" ... "Girls make boys cry")
G|------------------------------------|
D|------------------------------------|
A|------------------------------------|
D|-77777777-33333333-55555555-2-2-3-3-| [x5]
comments
print report bad tab
2 comments total.
0 reply
haydensrus wrote on October 17 2008, 08:57 pm

start of verse two is completely wrong. its has like 8 notes in the 1st riff and u only wrote 3 try again

0 reply
lil_em* wrote on May 9 2009, 12:45 am

sorry mate but majority of your tabs are way off.

I want to post or [tab]
guest
You may want to rate the tab now too:
select rating
Please do not post tabs as comments. Select "correction" instead!