Oops, an error
Loading. Please wait.

When You See My Friends Tab

version 3
version 3

Whole song

Interactive

7,839 views 42 this week
no commentswrite comment
1 2 3 4 5
excellent!
x 7
add to favorites
launch autoscroll
font size
0
reset
how to read this tab
guitar tuner
Tab Pro tools
  • play this tab
  • loop segment
  • change instrument
  • show fretboard
  • metronome
×
Best way to learn
"When You See My Friends"
Autoscroll
slow
fast
+/-
esc
set tempo
stop
Contributor
Title:          When You See My Friends (Acoustic version: 1 Million Likes on Facebook)
Artist:         Mayday Parade
Tabbed By:      Jeroen van Rijn (Explosion95)
Tuning:         Half-step Down
you can listen to the song on:
http://soundcloud.com/maydayparade/when-you-see-my-friends-acoustic


|----------|
|--LEGEND--|
|----------|

h   =   Hammer-on
p   =   Pull-off
_3_ =   triplet


|-------|
|--TAB--|
|-------|

[Intro]                          _3_
eb|-----------------------------|-|-|----------------------------------------|
Bb|-----------------------------|-|-|----------------------------------------|
Gb|-7-----0---------------------|-|-|----7-----0-----------------------------|
Db|---0-------0---2-4---0-2---0-|-|-|------0-------0---2-4---0-2-------------|
Ab|-----0-------0---5-0---0-----4h5p4p0------0-------0---5-0---0-------------|
Eb|-7-----3------------------------------7-----3-----------------------------|


[Verse]                          _3_
eb|-----------------------------|-|-|----------------------------------------|
Bb|-----------------------------|-|-|----------------------------------------|
Gb|-7-----0---------------------|-|-|----7-----0-----------------------------|
Db|---0-------0---2-4---0-2---0-|-|-|------0-------0---2-4---0-2-------------|
Ab|-----0-------0---5-0---0-----4h5p4p0------0-------0---5-0---0-------------|
Eb|-7-----3------------------------------7-----3-----------------------------|
I'm burned out like a bright light. I wasn't ready for this
you're adorable as hell, but I'm glancing at your wrist.
                                 _3_
eb|-----------------------------|-|-|----------------------------------------|
Bb|-----------------------------|-|-|----------------------------------------|
Gb|-7-----0---------------------|-|-|----7-----0-----------------------------|
Db|---0-------0---2-4---0-2---0-|-|-|------0-------0---2-4---0-2-------------|
Ab|-----0-------0---5-0---0-----4h5p4p0------0-------0---5-0---0-------------|
Eb|-7-----3------------------------------7-----3-----------------------------|
oh please have faith I can be so cavalier
and when they start to ask questions I'll make sure to be clear


[Chorus #1]
eb|---3--3-2--0--------0-------------------------------------|
Bb|---3--3-3--2----2-----2---------7------7-3---3---3----2---|
Gb|--0--------2------2-----2-------7------7-4---4---4----2---|
Db|--------------------------2---7---7-----------------------|
Ab|-----------0--0-------------5--------4---2-2---2---0----0-|
Eb|-3---3----------------------------------------------------|
When you see my friends tell 'em hi for me
tell 'em what you think about the way you handled everything

eb|---3--3-2--0--------0-------|
Bb|---3--3-3--2----2-----2-----|
Gb|--0--------2------2-----2---|
Db|--------------------------2-|
Ab|-----------0--0-------------|
Eb|-3---3----------------------|
you turned and all you left me with was this broken key
so tell me what you think
                                 _3_
eb|-----------------------------|-|-|----------------------------------------|
Bb|-----------------------------|-|-|----------------------------------------|
Gb|-7-----0---------------------|-|-|----7-----0-----------------------------|
Db|---0-------0---2-4---0-2---0-|-|-|------0-------0---2-4---0-2-------------|
Ab|-----0-------0---5-0---0-----4h5p4p0------0-------0---5-0---0-------------|
Eb|-7-----3------------------------------7-----3-----------------------------|

[Verse]                          _3_
eb|-----------------------------|-|-|----------------------------------------|
Bb|-----------------------------|-|-|----------------------------------------|
Gb|-7-----0---------------------|-|-|----7-----0-----------------------------|
Db|---0-------0---2-4---0-2---0-|-|-|------0-------0---2-4---0-2-------------|
Ab|-----0-------0---5-0---0-----4h5p4p0------0-------0---5-0---0-------------|
Eb|-7-----3------------------------------7-----3-----------------------------|
And give it up for the long nights - give it up for the long nights - and all those 
terrible fights
were you honest with yourself, every version of yourself?
                                 _3_
eb|-----------------------------|-|-|----------------------------------------|
Bb|-----------------------------|-|-|----------------------------------------|
Gb|-7-----0---------------------|-|-|----7-----0-----------------------------|
Db|---0-------0---2-4---0-2---0-|-|-|------0-------0---2-4---0-2-------------|
Ab|-----0-------0---5-0---0-----4h5p4p0------0-------0---5-0---0-------------|
Eb|-7-----3------------------------------7-----3-----------------------------|
did you get lost on the side of the road?
if you keep acting this way I swear I'll never come home

[Chorus #2]
eb|---3--3-2--0--------0-------------------------------------|
Bb|---3--3-3--2----2-----2---------7------7-3---3---3----2---|
Gb|--0--------2------2-----2-------7------7-4---4---4----2---|
Db|--------------------------2---7---7-----------------------|
Ab|-----------0--0-------------5--------4---2-2---2---0----0-|
Eb|-3---3----------------------------------------------------|
When you see my friends tell 'em hi for me
tell 'em what you think about the way you handled everything

eb|---3--3-2--0--------0-------------------------------------|
Bb|---3--3-3--2----2-----2---------7------7-3---3---3----2---|
Gb|--0--------2------2-----2-------7------7-4---4---4----2---|
Db|--------------------------2---7---7-----------------------|
Ab|-----------0--0-------------5--------4---2-2---2---0----0-|
Eb|-3---3----------------------------------------------------|
we walk alone on this broken road for eternity
so give me company and help me sing this lonely melody

eb|---3--3-2--0--------0-------|
Bb|---3--3-3--2----2-----2-----|
Gb|--0--------2------2-----2---|
Db|--------------------------2-|
Ab|-----------0--0-------------|
Eb|-3---3----------------------|
you turned and all you left me with was this broken key

eb|---------------------------------|
Bb|-0-0-0-0-0-0-0-0-7-7-7-5-5-5-5-5-|
Gb|-7-7-7-4-4-4-4-4-7-7-7-----------|
Db|-9-9-7-5-5-5-5-5-7-7-7-7-7-7-7-7-|
Ab|-9-9-7-5-5-5-5-5-5-5-5-7-7-7-7-7-|
Eb|-7-7-5-3-3-3-3-3-------5-5-5-5-5-|
so tell me what you think

eb|---------------------------------|
Bb|-0-0-0-0-0-0-0-0-7-7-7-5-5-5-5-5-|
Gb|-7-7-7-4-4-4-4-4-7-7-7-----------|
Db|-9-9-7-5-5-5-5-5-7-7-7-7-7-7-7-7-|
Ab|-9-9-7-5-5-5-5-5-5-5-5-7-7-7-7-7-|
Eb|-7-7-5-3-3-3-3-3-------5-5-5-5-5-|

[Bridge]
eb|---------------------------------| 6x
Bb|-----------------7-7-7-----------|
Gb|-7-7-7-4-4-4-4-4-7-7-7-6-6-6-6-6-|
Db|-9-9-7-5-5-5-5-5-7-7-7-7-7-7-7-7-|
Ab|-9-9-7-5-5-5-5-5-5-5-5-7-7-7-7-7-|
Eb|-7-7-5-3-3-3-3-3-------5-5-5-5-5-|
Sign me up, no regrets, make a man out of me. And I
won't say a word and I'll give all the things that you
want and I need just to give me some peace. at the
bottom of the ocean there's a place for you and me. lead the
way straight ahead you gave me the time of my life
and it cut like a knife to the bone

|---------------------------------|
|---------------------------------|
|-7-7-7-4---------7---------------|
|-9-9-7-5---------7---------------|
|-9-9-7-5---------5---------------|
|-7-7-5-3-------------------------|

[Outro]
eb|---3--3-2--0--------0-------------------------------------|
Bb|---3--3-3--2----2-----2---------7------7-3---3---3----2---|
Gb|--0--------2------2-----2-------7------7-4---4---4----2---|
Db|--------------------------2---7---7-----------------------|
Ab|-----------0--0-------------5--------4---2-2---2---0----0-|
Eb|-3---3----------------------------------------------------|
When you see my friends tell them hi for me
and tell them what you think about the way you handled everything

eb|---3--3-2--0--------0------------|
Bb|---3--3-3--2----2-----2------7---|
Gb|--0--------2------2-----2----7---|
Db|--------------------------2------|
Ab|-----------0--0--------------5---|
Eb|-3---3---------------------------|
so neat and clean well the world is filled with such pretty things
so do your best for me




|--------|
|--TIPS--|
|--------|

in the verse..
instead of
---     ---|
--- you -3-|
-7- can ---|
--- use ---|
---     -2-|
-7-     ---|

in the chorus..
instead of
-----     -2-2-|
-7-7- you -3-3-|
-7-7- can -2-2-|
-7-7- use -0---|
-5-4-     ---4-|
-----     -----|
comments
print report bad tab
I want to post or [tab]
guest
You may want to rate the tab now too:
select rating
Please do not post tabs as comments. Select "correction" instead!