Oops, an error
Loading. Please wait.

You Be The Anchor That Keeps My Feet On The Ground Chords

version 3
version 3

Whole song

Interactive

65,542 views 42 this week
3 commentsread comments
1 2 3 4 5
x 40
add to favorites
launch autoscroll
font size
0
reset
transpose
0
reset
simplify chords
display chords
guitar tuner
Autoscroll
slow
fast
+/-
esc
set tempo
stop
Help us to improve Ultimate-Guitar.com Take our survey!
×
Author
-------------------------------------------------------------------------------
   You Be The Anchor That Keeps My Feet On The Ground - Mayday Parade
-------------------------------------------------------------------------------
Tabbed by: Sean Hummer
Email: allstar21369@hotmail.com 
Tuning: Standard
 
Chords Used 
  Cadd9      G     Gsus2   Em/D   Dsus4  D#maj7-5  A7sus4  
e|---3---|---3---|---3---|---3---|---3---|---3---|---3---|
B|---3---|---3---|---3---|---3---|---3---|---3---|---3---|
G|---0---|---0---|---2---|---0---|---2---|---2---|---0---|
D|---x---|---0---|---0---|---2---|---0---|---1---|---2---|
A|---3---|---x---|---0---|---2---|---x---|---x---|---x---|
E|---x---|---3---|---2---|---0---|---x---|---x---|---x---|
 
[Intro]
e|----------------------------------------------------------------------|
B|---------------------------------------0------0-----------------------|
G|----0--------0-----------0--------0------0------0----0----0-----------|
D|--0---0----0---0-------0---0----0----------------------0--------------|
A|3--------3--------3/10--------9------7------7------5---------0-2-3----|
E|----------------------------------------------------------------------|
 
[Verse 1]
Cadd9         G           Gsus2       Em/D
And honestly, I have been begging for answers 
     Dsus4                        Cadd9
That you and only you can give to me 
               G              Gsus2      Em/D
A voice crying loud I've been crying for days now 
    Dsus4                        Cadd9
And as I start to run, I stop to breathe 
(And I was nearly scared to death) 
    G            Gsus2
And I was nearly scared to death 
Em/D
(Why you left in paragraphs) 
Dsus4
Why you left in paragraphs 
     Cadd9
(The words were nearly over us) 
    G                 Gsus2
The words were nearly over us 
    Em/D                        Dsus4
You stop and turn and grab your bags 
 
[Chorus 1]
            G
And I'll be here by the ocean 
Just waiting for proof that there's 
Cadd9
sunsets and silhouette dreams 
Gsus2    Em/D
  All my sand castles fall 
         Gsus2    G
like the ashes of cigarettes 
    Cadd9                   Gsus2
And every waves drags me to sea 
         G
I could stand here for hours 
Just to ask God the question
    Cadd9 
"Is everyone here make-believe?" 
Gsus2    Em/D
  With a tear in His voice
          Gsus2           G 
He said, "Son, that's the question." 
          Cadd9
Does this deafening silence 
     Dsus4
mean nothing to no one but me?
 
e|x------------------------------------------------------------------|
B|3---3---------------3------------------3-------------3-------------|
G|0-0---0---------0--------0---------0-------0-------0---------0-----|
D|0-------0-----0---0----0---0-----0---0---0---0-----------2h4---0---|
A|x------------------------------3-----------------3-----------------|
E|3-----------3------------------------------------------------------|


e|-------------------------------------------------------------------|
B|-------3----------3-------3-------------3----------------3---------|
G|---0-----0--------0-0-----0-0-------0------0---------0-----0----0~-|
D|---0-0---0-0--------0-------0-----0---0------0---0h4---4-----4-----|
A|--------------------------------3----------------------------------|
E|0--------------2--------3------------------------------------------|


e|x------------------------------------------------------------------|
B|3---3---------------3------------------3-------------3-------------|
G|0-0---0---------0--------0---------0-------0-------0---------0-----|
D|0-------0-----0---0----0---0-----0---0---0---0-----------2h4---0---|
A|x------------------------------3-----------------3-----------------|
E|3-----------3------------------------------------------------------|


e|----------------------------------------------------|
B|-------3----------3-------3-------------3------3~---|
G|---0-----0--------0-0-----0-0-------0------0---0~---|
D|---0-0---0-0--------0-------0-----0---0------0-x----|
A|--------------------------------3--------------3~---|
E|0--------------2--------3---------------------------|
 
[Interlude]
Cadd9 
e|3~------3----------------------3~---------------|
B|3~------0h1/3------------------3~---------------|
G|0~------0-----------0----------0~-------0-------|
D|x-------x-------2h4---0-------------2h4---0-----|
A|3~------3---------------3-------------------3---|
E|------------------------------------------------|
 
[Verse 2]
(Play the above interlude lead for the first half of the Verse 2)
Cadd9
  As hours move to minutes 
And minutes take longer to break 
I will be desperately awaiting 
But my tongue won't fall apart 
And we've been sitting here for hours 
All alone and in the dark 
Cadd9                   G      Gsus2
  So let me think of to word it 
Em/D                     Dsus4
  Is it too soon to say 'perfect'? 
Cadd9                     G              Gsus2
  If I could find another thirty minutes somewhere 
         Em/D
I'm sure everything would find me 
           Dsus4
All that's left is just to sing 
 
[Chorus 2]
            G
And I'll be here by the ocean 
Just waiting for proof that there's 
Em/D
sunsets and silhouette dreams 
       Cadd9
All my sand castles fall 
                  Gsus2
like the ashes of cigarettes 
    Dsus4                       Em/D Gsus2
And every waves drags me to sea 
         G
I could stand here for hours 
Just to ask God the question
    Em/D 
"Is everyone here make-believe?" 
       Cadd9
With a tear in His voice
He said, "Son, that's the question." 
          Dsus4
Does this deafening silence 
mean nothing to no one but me?
 
[Bridge]
           Cadd9                  G
And you'll sing to me sweet until then 
      Cadd9                  G
I may never sail Virginia again 
          Cadd9         Dsus4
Alas this current moves slow for me 
D#maj7-5           A7sus4             Cadd9
this much you must know... we'll meet again
               Cadd9
And I'll, I'll have you know I'm scared to death 
Cadd9
  Tell me once again that you
     Em/D             Gsus2 
will love me till the death 
             G
And should I die, you swear 
     Dsus4             Cadd9
that you will come for me
                    Em/D           Gsus2   G    Dsus4
As I fade away, you reach out your arms 
     Cadd9
(And please don't let me go) 
    Em/D   Gsus2 G   Dsus4  Cadd9
And please don't let me go 
     Cadd9
(And please don't let me go) 
    Em/D   Gsus2 G   Dsus4  Cadd9
And please don't let me go 
 
e|3~---3~-----------------|
B|3~---3~-----------------|
G|0~---2~-----------------|
D|2~---0~-----------------|
A|2~---0~-----------------|
E|0~---2~---3-2-3-5-3-2---|
 
************************************

| h  Hammer-on 

************************************ 
Suggest correction
comments
print report bad tab
3 comments total.
0 reply
Cracka94 10 Oct 02, 2009 08:08 AM

yess thanks heaps pretty much perfect, great tab

0 reply
ace.sardea 10 Sep 12, 2014 08:52 AM

thanks so much pal...

0 reply
xMCR.for.Lifex 192 Apr 29, 2016 08:57 AM

missing a few things for the electric, mainly at the last chorus...

try:

e|--15-------------|
B|----15-----------|
G|------16-14------| REPEAT UNTIL END
D|-----------16----|
A|-------------17--|
E|-----------------|

guest
You may want to rate the tab now too:
select rating
Wanna post a correction for this tab? Suggest correction