Oops, an error
Loading. Please wait.

You Be The Anchor That Keeps My Feet On The Ground Tab

version 4
version 4

Whole song

Interactive

4,519 views 15 this week
1 commentread comment
1 2 3 4 5
excellent!
x 7
add to favorites
launch autoscroll
font size
0
reset
how to read this tab
guitar tuner
Autoscroll
slow
fast
+/-
esc
set tempo
stop
Help us to improve Ultimate-Guitar.com Take our survey!
×
Contributor
Almost 100% sure this is right... :) enjoy *sounds really good acoustic*



e|--------------------------------------------------------------|
B|--------------------------------------------------------------|
G|------0-------0--------0-----0-----0-----0-------0------------| (x4)
D|----0---0---0---0----0-----0-----9-----9-------4---4/7--------|
A|--3-------3-------10-----9-----7-----7-----7/5---------0-2-3--|
E|--------------------------------------------------------------|

And honestly I have been begging for answers,
That you and only you can give to me,
A voice crying loud, I've been crying for days now
And as I start to run, I stop to breathe

e|----------------------------------------------------------------|
B|----------3-----------3-----------3-------------------------3---|
G|------0-----------0-----------0-----------0-------------0-------|
D|----0---0---0---0---0---0---0---0---0---0---0-4-5-0---0---0---0-|
A|--------------------------3-----------3-------------------------|
E|--3-----------3-------------------------------------0-----------|

  --------------------------------------|
  -----3-----3---------3---------3------|
  ---0-----0-------0-----------0---0----| (x2)
  ---------------0---0---0-----------4--|
  -------------3-----------3/5----------|
  -2-----3------------------------------|

And I'll be here by the ocean just waiting for proof that there's sunsets and silhouette dreams,
All my sandcastles fall like the ashes of cigarettes and every wave drags me to sea,
I could stand here for hours just to ask God the question, "Is everyone here make-believe?"
With a tear in His voice he said, "Son, that's the question.
Does this deafening silence mean nothing to no one but me?

guitar 1:             guitar 2:
e|--3----------|      e|--3--|
B|--3----------|      B|--3--|
G|-------------| (x6) G|--0--|  (keep playing same chord)
D|----4-5-0----|      D|--2--|
A|----------3--|      A|--3--|
E|-------------|      E|--0--|

As hours turn to minutes, and minutes take longer to break,
I will be desperately awaiting, but my tongue won't fall apart,
And we've been sitting here for hours all alone and in the dark

guitar 1:                      guitar 2:
e|-------------------------|   e|--3--3--3--3--3--3--3--3--3--3--3--|
B|-------------------------|   B|--3--3--3--3--3--3--3--3--3--3--3--|
G|-----------2-------------|   G|--0--0--0--0--0--0--0--0--0--0--0--|
D|--5-4-2--0-----5-4-2--0--|   D|--2--0--0--2--2--0--0--0--0--2--2--|
A|-------------3-----------|   A|--3--2--0--2--3--0--2--2--0--2--3--|
E|-------------------------|   E|--0--3--2--0--0--2--3--3--2--0--0--|

So let me think of how to word it, is it to soon to say 'perfect'?
If I could find another thirty minutes somewhere,
I'm sure everything would find me, all that's left is just to sing,

e|------3-5-3-------3-5-3---------3-----2-----0-----|
B|----3-------3---3-------3-----3---3-----3-----3---|
G|--0-----------0-------------0-------0-----0-----0-|
D|--------------------------2-----------------------|
A|--------------------------------------------------|
E|--------------------------------------------------|

  -------------------0-----------------0-----2------|
  -------3-----------------------3------------------|
  -----0---0-------0---0-------0---0-----0-----0----| (x2)
  ---0-------0---0-------0---4-------4-----4-----4--|
  -3-----------3-----------5------------------------|
  --------------------------------------------------|

And I'll be here by the ocean just waiting for proof that there's sunsets and silhouette dreams,
All my sandcastles fall like the ashes of cigarettes and every wave drags me to sea,
I could stand here for hours just to ask God the question, "Is everyone here make-believe?"
With a tear in His voice he said, "Son, that's the question.
Does this deafening silence mean nothing to no one but me?

e|--3--3--3--3--3--3--3--3--|
B|--3--3--3--3--3--3--3--3--|
G|--0--0--0--0--0--0--0--0--|
D|--2--0--2--0--2--0--0--2--|
A|--3--2--3--2--2--0--2--3--|
E|--0--3--0--3--0--2--3--0--|

And if you sing to me sweet until then, I may never sail Virginia again,
And as this current moves slow for me, this much you must know,
We'll meet again, and I will have you know I'm scared to death,

e|-----------------|
B|-----------------|
G|--5-----------7--| (x4)
D|--5--2--4--5--7--|
A|--3--2--4--5--5--|
E|-----0--2--3-----|

Tell me once again, that you'll love me to the death,
And should I die, you swear that you will come for me,
As I fade away, you reach out your arms,
(And please don't let me go) And please don't let me go
(And please don't let me go) And please don't let me go

e|----------------------------------------------------------------|
B|----------3-----------3-----------3-------------------------3---|
G|------0-----------0-----------0-----------0-------------0-------|
D|----0---0---0---0---0---0---0---0---0---0---0-4-5-0---0---0---0-|
A|--------------------------3-----------3-------------------------|
E|--3-----------3-------------------------------------0-----------|

  --------------------------------------|
  -----3-----3---------3---------3------|
  ---0-----0-------0-----------0---0----| (x2)
  ---------------0---0---0-----------4--|
  -------------3-----------3/5----------|
  -2-----3------------------------------|

And I'll be here by the ocean just waiting for proof that there's sunsets and silhouette dreams,
All my sandcastles fall like the ashes of cigarettes and every wave drags me to sea,
I could stand here for hours just to ask God the question, "Is everyone here make-believe?"
With a tear in His voice he said, "Son, that's the question.
Does this deafening silence mean nothing to no one but me?
Suggest correction What's this?
You can suggest a correction to this tab. Community and Mods will review your correction and vote to approve or reject it.
comments
print report bad tab
1 comment total.
0 reply
marmars.renee 11 wrote on February 1 2013, 01:24 am

this is great!!! my first song I learned to read in tabs

I want to post or [tab]
guest
You may want to rate the tab now too:
select rating
Please do not post tabs as comments. Select "correction" instead!