Oops, an error
Loading. Please wait.

Your Song Tab

version 1
version 1

Whole song

16,076 views 9 this week
2 commentsread comments
1 2 3 4 5
excellent!
x 8
add to favorites
launch autoscroll
font size
0
reset
how to read this tab
guitar tuner
Tab Pro tools
  • play this tab
  • loop segment
  • change instrument
  • show fretboard
  • metronome
×
Best way to learn
"Your Song"
Autoscroll
slow
fast
+/-
esc
set tempo
stop
Contributor
Tuning
D A D G B E
Intro

e|--------|
B|--------|
G|-7-(x32)
D|-7------|
A|-5------|
D|--------|

Verse 1

"You say that Gainesville's got no soul..."
e|---------------------------------|
B|---------------------------------|
G|-7-------------------------------|
D|-7-(x32)-5-(x32)-9-(x16)-7-(x16)-|
A|-5-------5-------9-------7-------|
D|---------5-------9-------7-------|

"And now it's 'Your Song'..."
e|-----------------------------------------|
B|-----------------------------------------|
G|-7---------------------------------------|
D|-7-(x16)-5-(x16)-9-(x16)-7-(x16)-5-(x32--|
A|-5-------5-------9-------7-------5-------|
D|---------5-------9-------7-------5-------|

Pre-Chorus

e|-----------------|
B|---------7-------|
G|-7-------7-------|
D|-7-(x16)-7-(x16--|
A|-5-------5-------|
D|-----------------|

Chorus

"And so stay..."
e|-----------------------------|
B|-----------------------------|
G|-----------------------------|
D|-5-(x7)-5-(x7)-5-(x7)-5------|(x7)
A|-5------5------5------5------|
D|-5------5------5------5------|

"...fade away..."
e|-----------------------------|
B|-----------------------------|
G|-7------7------7------7------|
D|-7-(x7)-7-(x7)-7-(x7)-7------|(x7)
A|-5------5------5------5------|
D|-----------------------------|

"And it'll say that I miss you..."
e|-----------------------------|
B|-----------------------------|
G|-----------------------------|
D|-9-(x8)-7-(x8)-5-(x8)-7-(x16-|
A|-9------7------5------7------|
D|-9------7------5------7------|

Verse 2

"I poured through every song I love..."
e|--------------------------------------|
B|--------------------------------------|
G|-7-------------------------------7~7~-|
D|-7-(x32)-5-(x32)-9-(x16)-7-(x16)-7~7~-|
A|-5-------5-------9-------7-------5~5~-|
D|---------5-------9-------7------------|

"So let's sing them all night long..."
e|---------------------------------|
B|---------------------------------|
G|---------------------------------|
D|-5-(x16)-9-(x16)-7-(x16)-5-(x32--|
A|-5-------9-------7-------5-------|
D|-5-------9-------7-------5-------|

Chorus

"Stay and watch the stars come up..."
e|-----------------------------|
B|-----------------------------|
G|-----------------------------|
D|-5-(x7)-5-(x7)-5-(x7)-5------|(x7)
A|-5------5------5------5------|
D|-5------5------5------5------|

"...fade away..."
e|-----------------------------|
B|-----------------------------|
G|-7------7------7------7------|
D|-7-(x7)-7-(x7)-7-(x7)-7------|(x7)
A|-5------5------5------5------|
D|-----------------------------|

"And it'll say that I miss you..."
e|-----------------------------|
B|-----------------------------|
G|-----------------------------|
D|-9-(x8)-7-(x8)-5-(x8)-7-(x16-|
A|-9------7------5------7------|
D|-9------7------5------7------|

Breakdown (or whatever you wish to call it)

"And I could call you baby doll all the time..."
e|--------------------------------|
B|--------------------------------|
G|-7------------------------------|
D|-7-(x16)-5-(x16)-9-(x16)-7------|(x8)
A|-5-------5-------9-------7------|
D|---------5-------9-------7------|

"And I could call you baby doll all the time..."
e|--------------------------------|
B|--------------------------------|
G|-7------------------------------|
D|-7-(x16)-5-(x16)-9-(x16)-7-(x16-|
A|-5-------5-------9-------7------|
D|---------5-------9-------7------|

"...and over again..."
e|-----
B|-----
G|-----
D|-7-77
A|-7-77
D|-7-77

Bridge

e|-------------------------------------------------------|
B|-------------------------------------------------------|
G|-------------------------------------------------------|
D|-5-(x8)-5-(x3)-5-(x8)-5-(x3)-5(x8)-5(x3)-5-(x8)-5------|(x3)
A|-5------5------5------5------5-----5-----5------5------|
D|-5------5------5------5------5-----5-----5------5------|

e|---------------------------------------------------------------|
B|---------------------------------------------------------------|
G|-7------7------7------7------7-----7-----7------7\-------------|
D|-7-(x8)-7-(x3)-7-(x8)-7-(x3)-7(x8)-7(x3)-7-(x8)-7\-------------|(slide down)
A|-5------5------5------5------5-----5-----5------7\-------------|
D|---------------------------------------------------------------|

"Still you'll say that I miss you..."
e|-----------------------------|
B|-----------------------------|
G|-----------------------------|
D|-9-(x8)-7-(x8)-5-(x8)-7------|(x8)
A|-9------7------5------7------|
D|-9------7------5------7------|

"And, with open eyes, I kiss you..."
e|-----------------------------|
B|-----------------------------|
G|-----------------------------|
D|-9-(x8)-7-(x8)-5-(x8)-7------|(x8)
A|-9------7------5------7------|
D|-9------7------5------7------|

Breakdown/outro/whatever

"And I could call you baby doll all the time..."
e|--------------------------------|
B|--------------------------------|
G|-7------------------------------|
D|-7-(x16)-5-(x16)-9-(x16)-7-(x16-|
A|-5-------5-------9-------7------|
D|---------5-------9-------7------|

"And I could call you baby doll all the time..."
e|--------------------------------|
B|--------------------------------|
G|-7------------------------------|
D|-7-(x16)-5-(x16)-9-(x16)-7-(x16-|
A|-5-------5-------9-------7------|
D|---------5-------9-------7------|

End on:

e|---
B|---
G|-7~
D|-7~
A|-5~
D|---
comments
print report bad tab
2 comments total.
0 reply
tom0466 wrote on February 19 2008, 07:28 pm

Sounds good to me. Five stars.

0 reply
JosEatsAirplane wrote on January 30 2009, 08:00 pm

on the Pre-chorus you are right about that 5th fret but on the second part of that instead of 5777 if you slide down to the 9th fret it'll be good =P otherwise good tab!

I want to post or [tab]
guest
You may want to rate the tab now too:
select rating
Please do not post tabs as comments. Select "correction" instead!