Oops, an error
Loading. Please wait.

Chainsaw Gutsfuck Bass Tab

version 1
version 1

Whole song

Interactive

3,220 views 15 this week
no commentswrite comment
1 2 3 4 5
please rate
add to favorites
launch autoscroll
font size
0
reset
guitar tuner
Autoscroll
slow
fast
+/-
esc
set tempo
stop
Help us to improve Ultimate-Guitar.com Take our survey!
×
Author
Difficulty
CLIFF_BURTON 1,043
novice
Chainsaw Gutsfuck - Mayhem
Deathcrush 1987

tabbed by: Aaron S.
e-mail: as413@sbcglobal.net

Tuning: BEADG

5 string version of Chainsaw Gutsfuck. Even if you dont have a 5 string you can tune 
4 string to B,E,A,D. The standard tuning versions are not correct.

Intro 0:37
G|-----------|
D|-----------|
A|-----------|
E|-----------|
B|-2---5--4--|

Riff 1
G|----------------------|
D|----------------------|
A|----------------------|
E|----------------------|
B|-3--3-3--3-3h4-4h5----|

Riff 2
G|----------------------|
D|----------------------|
A|----------------------|
E|-------------6-5------|
B|-2--2-2/3-3------5-4--|

"Riff 3"
G|----------------------|
D|----------------------|
A|----------------------|
E|----------------------|
B|-2-----3--------------|
   *     *

* - let notes ring

Riff 4
G|----------------------|
D|----------------------|
A|----------------------|
E|----------------------|
B|-3333333333333333333--|

"Riff 5" 3:26
Last note

B|--2-----
    *

Intro x17 ends @ 0:37
Pause
Riff 1 x7 0:41 - 0:58
Riff 2 x4 0:59 - 1:08
Riff 1 x4 1:09 - 1:19
Riff 2 x4 1:19 - 1:28
Riff 1 x4 1:29 - 1:38
Riff 2 x4 1:39 - 1:49
Pause
Riff 2 x6 2:07 - 2:16
Riff 1 x4 2:16 - 2:26
Riff 2 x4 2:26 - 2:36
Riff 3    2:36 - 2:38
Pause
Riff 4    2:42 - 2:55
Riff 2 x4 2:56 - 3:05
Riff 1 x4 3:06 - 3:16
Riff 2 x4 3:16 - 3:25
Riff 5    3:26 - 3:29

END
Suggest correction
What's this?
You can suggest a correction to this tab. Community and Mods will review your correction and vote to approve or reject it.
comments
We did not receive enough feedback on this tab! Please rate:
print report bad tab
1 2 3 4 5
guest
You may want to rate the tab now too:
select rating
Please do not post tabs as comments. Select "correction" instead!