Oops, an error
Loading. Please wait.

Chainsaw Gutsfuck bass

version 2
version 2

Whole song

Interactive

by Mayhem
139 views 1 this week
1 commentread comment
1 2 3 4 5
3 more votes to show rating
add to favorites
×
Save as Personal and add changes to this tab that will be seen only by you. Learn more ›
×
You can save this tab as Personal to edit and correct it or add notes. All changes will be seen only by you. Learn more »
launch autoscroll
font size
0
reset
guitar tuner
edit
Autoscroll
slow
fast
+/-
esc
set tempo
stop
Author
Artist: (The True) Mayhem
Album/EP: Deathcrush
Song Name: Chainsaw Gutsfuck
Bassist: Jørn "Necrobutcher" Stubberud
Tuning: E standard or D standard (Not completely sure)
Effects: I'd recommend either a distortion or fuzz pedal.
Tabbed by: Mr. Lefty AKA Lurkingfan4


[Intro] x 17
G|----------------------------------------------------------------------|
D|----------------------------------------------------------------------|
A|----------------------------------------------------------------------|
E|-0--3-2---------------------------------------------------------------|

Rest while guitar plays chorus riff x2

[Chorus] x7
G|----------------------------------------------------------------------|
D|----------------------------------------------------------------------|
A|----------------------------------------------------------------------|
E|-0--0--0-0-1-1-2-2----------------------------------------------------|


[Verse] x4
G|----------------------------------------------------------------------|
D|----------------------------------------------------------------------|
A|----------1-2---------------------------------------------------------|
E|-0--0-1-0-----1-2-----------------------------------------------------|

OR

G|----------------------------------------------------------------------|
D|----------------------------------------------------------------------|
A|----------2-1---------------------------------------------------------|
E|-0--0-1-0-----2-1-----------------------------------------------------|
(Not 100% sure which)


[Chorus] x4
G|----------------------------------------------------------------------|
D|----------------------------------------------------------------------|
A|----------------------------------------------------------------------|
E|-0--0--0-0-1-1-2-2----------------------------------------------------|


[Verse] x4
G|----------------------------------------------------------------------|
D|----------------------------------------------------------------------|
A|----------1-2---------------------------------------------------------|
E|-0--0-1-0-----1-2-----------------------------------------------------|


[Chorus] x4
G|----------------------------------------------------------------------|
D|----------------------------------------------------------------------|
A|----------------------------------------------------------------------|
E|-0--0--0-0-1-1-2-2----------------------------------------------------|


[Verse] x4
G|----------------------------------------------------------------------|
D|----------------------------------------------------------------------|
A|----------1-2---------------------------------------------------------|
E|-0--0-1-0-----1-2-----------------------------------------------------|

Rest

Variation of Verse riff x1
G|----------------------------------------------------------------------|
D|----------------------------------------------------------------------|
A|---1-2----------------------------------------------------------------|
E|-0-----1-2------------------------------------------------------------|

OR

G|----------------------------------------------------------------------|
D|----------------------------------------------------------------------|
A|---2-1----------------------------------------------------------------|
E|-0-----2-1------------------------------------------------------------|

And then normal Verse riff x6


[Chorus] x4
G|----------------------------------------------------------------------|
D|----------------------------------------------------------------------|
A|----------------------------------------------------------------------|
E|-0--0--0-0-1-1-2-2----------------------------------------------------|


[Verse] x4
G|----------------------------------------------------------------------|
D|----------------------------------------------------------------------|
A|----------1-2---------------------------------------------------------|
E|-0--0-1-0-----1-2-----------------------------------------------------|


[Bridge]
Rest for a while
This riff x3
G|----------------------------------------------------------------------|
D|----------------------------------------------------------------------|
A|---------7-7-7-7---------7-7-7-7--------------------------------------|
E|-0-0-0-0---------0-0-0-0----------------------------------------------|


[Verse] x4
G|----------------------------------------------------------------------|
D|----------------------------------------------------------------------|
A|----------1-2---------------------------------------------------------|
E|-0--0-1-0-----1-2-----------------------------------------------------|


[Chorus] x4
G|----------------------------------------------------------------------|
D|----------------------------------------------------------------------|
A|----------------------------------------------------------------------|
E|-0--0--0-0-1-1-2-2----------------------------------------------------|


[Verse] x4
G|----------------------------------------------------------------------|
D|----------------------------------------------------------------------|
A|----------1-2---------------------------------------------------------|
E|-0--0-1-0-----1-2-----------------------------------------------------|


[Outro]
G|----------------------------------------------------------------------|
D|--------X-------------------------------------------------------------|
A|-2------X-------------------------------------------------------------|
E|--------X-------------------------------------------------------------|

I might have missed something, but it's my first tab, so I'm not very experienced.



************************************

| X Dead note

************************************

            
            
Suggest correction
Creating personal tab
Creating personal tab
You can edit any tab online and save it as your Personal.

You can edit, replace or remove any tab part or add personal notes – all changes will be seen only by you.

Personal tabs can be accessed anytime from any device, even offline.
Learn more »
Give kudos to tab author, rate the tab!
1 2 3 4 5
comments
print report bad tab
1 comment total.
0 reply
schoben 3,352 Aug 08, 2016 04:41 AM

didn't like this contribution

guest
You may want to rate the tab now too:
select rating
Wanna post a correction for this tab? Suggest correction