Oops, an error
Loading. Please wait.

Deathcrush bass

version 1
version 1

Whole song

Interactive

by Mayhem
5,626 views 18 this week
2 commentsread comments
1 2 3 4 5
x 3
add to favorites
×
Save as Personal and add changes to this tab that will be seen only by you. Learn more ›
×
You can save this tab as Personal to edit and correct it or add notes. All changes will be seen only by you. Learn more »
launch autoscroll
font size
0
reset
guitar tuner
backing track
0:00
0:00
edit
Autoscroll
slow
fast
+/-
esc
set tempo
stop
This is Deathcrush by Myhem off their album Deathcrush.
Time: 3:33

INTRO
G|---------------------------|---------------------------|
D|---------------------------|---------------------------|
A|---------------------------|---------------------------|
E|-----------------------6-6-|---------------------------|

  RIFF 1
G|-------------------------|-------------------------|
D|-------------------------|-------------------------|
A|-------------------------|-------------------------|
E|-0-0-3-0-7-6-0-0-3-0-6-6-|-0-0-3-0-7-6-0-0-3-0-6-6-|

  RIFF 2
G|-------------------------|-------------------------|
D|-------------------------|-------------------------|
A|-------------------------|-------------------------|
E|-------------------------|-----10-10-10-10-8-8-8-8-|
   
  RIFF 3
G|---------------------------------------------------------------------|
D|---------------------------------------------------------------------|
A|---------------------------------------------------------------------|
E|-5-5-5-5-6-6-6-6-5-5-5-5-6-6-6-6-5-5-5-5-6-6-6-6-10-10-10-10-8-8-8-8-|

  RIFF 4
G|-----------------------------|-----------------------------|
D|-----------------------------|-----------------------------|
A|-----------------------------|-----------------------------|
E|-5-5-5-5-5-5-5-5-5-5-5-4-4-4-|-5-5-5-5-5-5-5-5-5-5-5-4-4-4-|

  RIFF 5
G|-------------------------|-------------------------|
D|-------------------------|-------------------------|
A|-------------------------|-------------------------|
E|-0-0-3-0-7-6-0-0-3-0-6-6-|-0-0-3-0-7-6-0-0-3-0-6-5-|

  RIFF 6
G|---------------------------------------------------------------------|
D|---------------------------------------------------------------------|
A|---------------------------------------------------------------------|
E|-5-5-5-5-6-6-6-6-5-5-5-5-6-6-6-6-5-5-5-5-6-6-6-6-5-------------------|

  OUTRO
G|-----|
D|-----|
A|-----|
E|-0---|
Let E ring for a while

Order:
INTRO
RIFF 1 two times
RIFF 2
RIFF 3 four times
RIFF 4 four times
RIFF 3 four times
RIFF 4 four times
RIFF 5
RIFF 1 two times 
RIFF 3 three times
RIFF 6
RIFF 3
Riff 6
RIFF 3
RIFF 6
RIFF 3 two times
RIFF 4 four times
OUTRO

            
            
Suggest correction
Creating personal tab
Creating personal tab
You can edit any tab online and save it as your Personal.

You can edit, replace or remove any tab part or add personal notes – all changes will be seen only by you.

Personal tabs can be accessed anytime from any device, even offline.
Learn more »
Give kudos to tab author, rate the tab!
1 2 3 4 5
comments
print report bad tab
2 comments total.
0 reply
swave75 382 Aug 04, 2012 09:37 AM

Excellent tab dude!

0 reply
6METAL6BASSIST6 [tm] 23,797 Jun 15, 2013 07:57 PM

This song is in B standard.

guest
You may want to rate the tab now too:
select rating
Wanna post a correction for this tab? Suggest correction