Oops, an error
Loading. Please wait.

Key To The Storms tab

by Mayhem
1,306 views 1 this week
no commentswrite comment
1 2 3 4 5
3 more votes to show rating
add to favorites
×
Save as Personal and add changes to this tab that will be seen only by you. Learn more ›
×
You can save this tab as Personal to edit and correct it or add notes. All changes will be seen only by you. Learn more »
launch autoscroll
font size
0
reset
how to read this tab
guitar tuner
edit
Autoscroll
slow
fast
+/-
esc
set tempo
stop
#------------------------------------PLEASE  NOTE-----------------------------------------------#
#This file is the author's own work and represents their interpretation of the #
#song. You may only use this file for private study, scholarship, or research#
#-----------------------------------------------------------------------------------------------#

G: Mayhem - Key to the Storms

Tabbed Monday, Mar 10 2008


Band    Mayhem
Album: Ordo ad Chao
Song:  Key to the Storms
 
Transcribed By: Elathen
Email:         myfreezingmoon@yahoo.com


. - palm mute / - slide up to
 - slide down to ~ - vibrato
h - hammer on p - pull off
, - slight palm mute [] - second time around
" " tremolo note <> - Trill

Suffixes for bend
f - full bend h - half bend
ph - pinched harmonic q - quarter bend
t - tap bend * - see comment
^ - Hold bend r - release bend
x – Staccato ~ - vibrato bend

Tuning E A D G B E

Riff 1                       Riff 1b
|---------------------------||--------------------------|
|---------------------------||--------------------------| 
|---------------------------||--------------------------| 
|---------------------------||--------------------------|  
|-----------2------------0--||-----------------------1--|
|–0-0--0-0--0--0-0--0-0--0--||–-1-1-1-1-1--0-0--1-1--3--|
  . .  . .     . .  . .    x2                          x2 
Riff 1 x 2 \
             x2
Riff 1b x 2/
   
Riff 2
|---------------------------------------|
|---------------------------^----—^-----|
|---------------2-----3—--–(2)—---3-----|
|-----------3—--"-----"-----"-----"-----|
|-------4---"---------------------------|
|–-0----"-------------------------------|
   "                                   x3
Fig.1
------------------------|                                   “
------------------------| 
------------------------| 
------------------------| 
------0—--1—–--3--0-----|
--0---0---0----0--0-----|
  "                    x1
Repeat Riff 2 x 3 

Repeat Fig. 1 x 2

Riff 3                  Riff 3b
|----------------------||--------------------|
|----------------------||--------------------| 
|----------------------||--------------------| 
|----------------------||--------------------|  
|–-6--—2–-3--4---2--0--||—-–0--—0----0--0----|
|-—4--—0—-1--2—––0—-0—-||---1---0----2--1----|
   "   "  "  "   "  " x1                    x1   
Riff 4                                   Fig. 2
|--------------------------------------||------------------|
|--------------------------^-------^---||------------------|
|---------------2-----3—-—-3—–—---(2)--||--------------3---|
|-----------3—--"-----"----"—(1)---"---||----------3---"---|
|-------4---"-----------------"--------||------4---"-------|
|–-(0)----"----------------------------||--0—--"-----------|
   "                                 x2   "               x1
Fill 1
|--------------------------------------------|
|--------------------------------------------| 
|--------------------------------------------| 
|–-------------------------------------------|  
|–-----3----/5---/7—---–/11—–---/15----------|
|–-0---1----/3—–-/5—---–/9------/13----------|
   "                                        x1
Riff 5                          Riff 5b
|-----------------------------||-------------------------------|
|-----------------------------||-------------------------------| 
|-----------------------------||-------------------------------| 
|---------3--4----2--3--------||-----------------4--5--3-4-----|  
|-–2-–0—--1--2—--–0—-1—---6---||-0--2--0--1--0—--2--3--1-2--7--|
|--0--0---"--"----"--"----4---||-0--0--0—-0--0---"--"--"-"--5--|
   "  "                   "  x1  "  "  "  "  "              " x1
Riff 5c
--------------------------------------|
--------------------------------------| 
------------------5—–-6—--5——--8--7---| 
------------------3—–-4—--3——--6--5---|  
--0--2--0--1--0—–-3—--4--—3——–-6--5---|
--0--0--0—-0--0---"---"---"----"--"---|
  "  "  "  "  "                      x1
Riff 5d
--------------------------------------|
------^-------------------------------| 
--------------------------------------| 
-----------------2---3--—2----4---0---|  
–-2—---0-0-0-0—--2---3—--2----4-—-0---|
–-0---—0-0-0-0—--0---1—--0----2---0---|
       . . . .                       x1
Repeat Fig. 1 x 1

Repeat Riff 3/b x 1

Riff 6a                 Riff 6b
|----------------------||-----------------------|
|----------------------||-----------------------|
|-----------1^---------||-------------------0---| 
|–-——-------0----------||-------------------1---|  
|–-3--—2---------------||--2--3--—2-4–-3-2------|
|–-1—--0---------------||--0--1---0-2--1-0------|
                      x2                       x1
Repeat Riff 6a x 1

Riff 7a                                Riff 7b
|-------------------------------------||-----------------------|
|---------------------------------2^--||-------------------2^--| 
|---------------------------------0---||-------------------0---|
|-------------------------------------||-----------------------| 
|–-2--3--2—----/6–--2---4—---3--------||—-2--3---2---4--3------|
|–-0--1--0-----/4–--0---2--—-1--------||--0--1---0—--2--1------|
                                     x1                       x2
Riff 8a
|----------------------------|
|-----------------------2^---| 
|-----------------------0----| 
|----------------------------|  
|-–2–-1--2-----/6--—5--------|
|–-0--3--0-----/4--–3--------|
                            x1
Riff 8b
--------------------------------------|
----------------2^--------------------| 
----------------0---------------------| 
--------------------------------------|  
–-7--6—--5--4-------6--5--4-4^—--3----|
–-5--4—--3--2-------4--3--2-2^--—1----|
                                     x1
Repeat Riff 7b x 2

Riff 8c .
--------------------------------------|
--------------------------------------| 
--------------------------------------| 
--------------------------------------|  
–-2--3--2---4--3--4—–2—–0–-3---2---0—-|
–-0--1--0—--2--1--2—-0—-0—-1---0—--0--|
                                     x1
End.

            
            
Suggest correction
Creating personal tab
Creating personal tab
You can edit any tab online and save it as your Personal.

You can edit, replace or remove any tab part or add personal notes – all changes will be seen only by you.

Personal tabs can be accessed anytime from any device, even offline.
Learn more »
Give kudos to tab author, rate the tab!
1 2 3 4 5
comments
print report bad tab
guest
You may want to rate the tab now too:
select rating
Wanna post a correction for this tab? Suggest correction