Oops, an error
Loading. Please wait.

Life Eternal bass

version 1
version 1

Whole song

Interactive

by Mayhem
1,704 views 1 this week
no commentswrite comment
1 2 3 4 5
2 more votes to show rating
add to favorites
×
Save as Personal and add changes to this tab that will be seen only by you. Learn more ›
×
You can save this tab as Personal to edit and correct it or add notes. All changes will be seen only by you. Learn more »
launch autoscroll
font size
0
reset
guitar tuner
edit
Autoscroll
slow
fast
+/-
esc
set tempo
stop
Author
Difficulty
Tabbed by: 6METAL6BASSIST6
E-mail: Petergriffinav@gmail.com

Tuning: 1/4 step down 
   
Only the distorted bassline is tabbed.

Re-tabbed.

G|----------------------------------------------------------------|.
D|----------------------------------------------------------------|.
A|0---------------------------------------------------------------|.
E|--------------------------------4-------------------------------|.
                                                                   . x4
G|----------------------------------------------------------------|.
D|----------------------------------------------------------------|.
A|0-------------------------------1-------------------------------|.
E|----------------------------------------------------------------|.

G|------------------------------------------------------------------------------------------------|
D|------------------------------------------------------------------------------------------------|
A|0-----------------------------------------------------------------------------------------------|
E|------------------------------------------------------------------------------------------------|

G|------------------------------------------------------------------------------------------------|
D|------------------------------------------------------------------------------------------------|
A|------------------------------------------------------------------------------------------------|
E|------------------------------------------------------------------------------------------------|

G|------------------------------------------------------------------------------------------------|
D|------------------------------------------------------------------------------------------------|
A|------------------------------------------------------------------------------------------------|
E|------------------------------------------------------------------------------------------------|

G|------------------------------------------------------------------------------------------------|
D|------------------------------------------------------------------------------------------------|
A|------------------------------------------------------------------------1-------1-------1-------|
E|------------------------------------------------------------------------------------------------|

0:38

G|------------------------------------------------------------------------------------------------|
D|------------------------------------------------------------------------------------------------| x8
A|0-----------0-----------0-----------0-----------0-----------0-----------1-------1-------1-------|
E|------------------------------------------------------------------------------------------------|

1:16

G|------------------------------------9-----------7-----------5---\-------3-----------------------|
D|------------------------7-------------------------------------------------------3---------------|
A|0-----------7---------------------------------------------------------------------------1-------|
E|------------------------------------------------------------------------------------------------|

G|------------------------------------------------------------------------------------------------|
D|------------------------------------2---------------------------------------------------0-------|
A|0-----------------------0-----------------------3-----------0-------------------1---------------|
E|------------0-----------------------------------------------------------3-----------------------|

G|------------------------------------9-----------7-----------5---\-------3---------------3-------|
D|------------------------7-------------------------------------------------------3---------------|
A|0-----------7-----------------------------------------------------------------------------------|
E|------------------------------------------------------------------------------------------------|

G|------------------------------------------------------------------------------------------------|
D|------------------------------------------------------------------------------------------------|
A|0-----------------------0-----------2-----------3-----------0-------------------1-------1-------|
E|------------0-----------------------------------------------------------1-----------------------|

G|------------------------------------9-----------7-----------5---\-------3-----------------------|
D|------------------------7-------------------------------------------------------3---------------|
A|0-----------7---------------------------------------------------------------------------1-------|
E|------------------------------------------------------------------------------------------------|

G|------------------------------------------------------------------------------------------------|
D|------------------------------------------------------------------------------------------------|
A|0-----------------------0-----------2-----------3-----------0-------------------1-------1-------|
E|------------0-----------------------------------------------------------1-----------------------|

G|------------------------------------9-----------7-----------5---\-------3---------------3-------|
D|------------------------7-------------------------------------------------------3---------------|
A|0-----------7-----------------------------------------------------------------------------------|
E|------------------------------------------------------------------------------------------------|

G|------------------------------------------------------------------------------------------------|
D|------------------------------------------------------------------------------------------------|
A|0-----------------------0-----------2-----------3-----------0-------------------1-------1-------|
E|------------0-----------------------------------------------------------1-----------------------|

1:55

G|------------------------------------------------------------------------------------------------|
D|------------------------------------------------------------------------------------------------| x4
A|0-----------0-----------0-----------0-----------0-----------0-----------1-------1-------1-------|
E|------------------------------------------------------------------------------------------------|

G|------------------------------------9-----------7-----------5---\-------3-----------------------|
D|------------------------7-------------------------------------------------------3---------------|
A|0-----------7---------------------------------------------------------------------------1-------|
E|------------------------------------------------------------------------------------------------|

G|------------------------------------------------------------------------------------------------|
D|----------------------------------------------------------------------------------------0-------|
A|0-----------------------0-----------2-----------3-----------0-------------------1---------------|
E|------------0-----------------------------------------------------------3-----------------------|

G|------------------------------------9-----------7-----------5---\-------3-----------------------|
D|------------------------7-------------------------------------------------------3---------------|
A|0-----------7---------------------------------------------------------------------------1-------|
E|------------------------------------------------------------------------------------------------|

G|------------------------------------------------------------------------------------------------|
D|----------------------------------------------------------------------------------------0-------|
A|0-----------------------0-----------2-----------3-----------0-------------------1---------------|
E|------------0-----------------------------------------------------------1-----------------------|

2:32

G|------------------------------------------------------------------------------------------------|
D|------------------------------------------------------------------------------------------------| x4
A|0-----------0-----------0-----------0-----------0-----------0-----------1-------1-------1-------|
E|------------------------------------------------------------------------------------------------|

G|------------------------------------9-----------7-----------5---\-------3---------------3-------|
D|------------------------7-------------------------------------------------------3---------------|
A|0-----------7-----------------------------------------------------------------------------------|
E|------------------------------------------------------------------------------------------------|

G|------------------------------------------------------------------------------------------------|
D|----------------------------------------------------------------------------------------0-------|
A|0-----------------------0-----------2-----------3-----------0-------------------1---------------|
E|------------0-----------------------------------------------------------1-----------------------|

G|------------------------------------9-----------7-----------5---\------3------------------------|
D|------------------------7-------------------------------------------------------3---------------|
A|0-----------7---------------------------------------------------------------------------1-------|
E|------------------------------------------------------------------------------------------------|

G|------------------------------------------------------------------------------------------------|
D|------------------------------------2-----------------------------------------------------------|
A|0-----------------------0-----------------------3-----------0-------------------1-------1-------|
E|------------0-----------------------------------------------------------1-----------------------|

3:09

G|------------------------------------------------------------------------------------------------|
D|------------------------------------------------------------------------------------------------| x8
A|------------------------------------------------------------------------------------------------|
E|0---4---4---5---4-------0---4---4---5---4-------0---4---4---5---4-------0---4---4---5---3-------|

G|----------------------------------------------------------------|
D|----------------------------------------------------------------|
A|----------------------------------------------------------------|
E|0---------------------------------------------------------------|

G|----------------------------------------------------------------|
D|----------------------------------------------------------------|
A|----------------------------------------------------------------|
E|----------------------------------------------------------------|

G|----------------------------------------------------------------|
D|----------------------------------------------------------------|
A|----------------------------------------------------------------|
E|----------------------------------------------------------------|

G|----------------------------------------------------------------|
D|----------------------------------------------------------------|
A|----------------------------------------------------------------|
E|----------------------------------------------------------------|

4:00

G|------------------------------------9-----------7-----------5---\-------3-----------------------|.
D|------------------------7-------------------------------------------------------3---------------|.
A|0-----------7---------------------------------------------------------------------------1-------|.
E|------------------------------------------------------------------------------------------------|.
                                                                                                   . x4
G|------------------------------------------------------------------------------------------------|.
D|------------------------------------2-----------------------------------------------------------|.
A|0----------------------0------------------------3-----------0-------------------1-------1-------|.
E|------------0-----------------------------------------------------------3-----------------------|.

G|----------------------------------------------------------------|
D|----------------------------------------------------------------|
A|0---------------------------------------------------------------|
E|----------------------------------------------------------------|

G|----------------------------------------------------------------|
D|----------------------------------------------------------------|
A|----------------------------------------------------------------|
E|----------------------------------------------------------------|

G|----------------------------------------------------------------|
D|----------------------------------------------------------------|
A|----------------------------------------------------------------|
E|----------------------------------------------------------------|

G|----------------------------------------------------------------|
D|----------------------------------------------------------------|
A|----------------------------------------------------------------|
E|----------------------------------------------------------------|

G|----------------------------------------------------------------|
D|----------------------------------------------------------------|
A|----------------------------------------------------------------|
E|----------------------------------------------------------------|

G|----------------------------------------------------------------|
D|----------------------------------------------------------------|
A|----------------------------------------------------------------|
E|----------------------------------------------------------------|

G|----------------------------------------------------------------|
D|----------------------------------------------------------------|
A|----------------------------------------------------------------|
E|----------------------------------------------------------------|

G|----------------------------------------------------------------|
D|----------------------------------------------------------------|
A|----------------------------------------------------------------|
E|--------------------------------3-----------4-------4---4-------|

4:57

G|----------------------------------------------------------------|.
D|--------------------------------3-------------------------------|.
A|0---------------------------------------------------------------|.
E|----------------------------------------------------------------|.
                                                                   . x4
G|----------------------------------------------------------------|.
D|----------------------------------------------------------------|.
A|0---------------------------------------------------------------|.
E|--------------------------------3---------------4---------------|.

5:19

G|----------------------------------------------------------------|.
D|----------------------------------------------------------------|.
A|0---------------------------------------------------------------|.
E|--------------------------------1-------------------------------|.
                                                                   . x4
G|----------------------------------------------------------------|.
D|----------------------------------------------------------------|.
A|0---------------------------------------------------------------|.
E|--------------------------------4-------------------------------|.

5:45

G|----------------------------------------------------------------|.
D|--------------------------------3-------------------------------|.
A|0---------------------------------------------------------------|.
E|----------------------------------------------------------------|.
                                                                   .
G|----------------------------------------------------------------|.
D|----------------------------------------------------------------|.
A|0---------------------------------------------------------------|.
E|--------------------------------3---------------4---------------|.
                                                                   . x4
G|----------------------------------------------------------------|.
D|----------------------------------------------------------------|.
A|0---------------------------------------------------------------|.
E|--------------------------------1-------------------------------|.
                                                                   .
G|----------------------------------------------------------------|.
D|----------------------------------------------------------------|.
A|0---------------------------------------------------------------|.
E|--------------------------------4-------------------------------|.

6:33

         Intro again but faster

G|----------------------------------------------------------------|.
D|----------------------------------------------------------------|.
A|0---------------------------------------------------------------|.
E|--------------------------------4-------------------------------|.
                                                                   . x4
G|----------------------------------------------------------------|.
D|----------------------------------------------------------------|.
A|0-------------------------------1-------------------------------|.
E|----------------------------------------------------------------|.

G|------------------------|
D|------------------------|
A|0-----------------------|
E|------------------------|
Suggest correction
Creating personal tab
Creating personal tab
You can edit any tab online and save it as your Personal.

You can edit, replace or remove any tab part or add personal notes – all changes will be seen only by you.

Personal tabs can be accessed anytime from any device, even offline.
Learn more »
Give kudos to tab author, rate the tab!
1 2 3 4 5
comments
print report bad tab
guest
You may want to rate the tab now too:
select rating
Wanna post a correction for this tab? Suggest correction