Oops, an error
Loading. Please wait.

Bang The Witch Is Dead Bass Tab

version 1
version 1

Whole song

Interactive

1,596 views 1 this week
1 commentread comment
1 2 3 4 5
1 last vote to show rating
add to favorites
launch autoscroll
font size
0
reset
guitar tuner
Autoscroll
slow
fast
+/-
esc
set tempo
stop
Help us to improve Ultimate-Guitar.com Take our survey!
×
Author
Difficulty
Tuning
novice
D A D G B E
Band: Maylene and the Sons of Disaster
Song: Bang! The Witch is Dead
Album: Maylene and the Sons of Disaster
Year: 2005
Tab: MustangMan311



They've got a Southern string bend thing going on here,
so most of the pull-offs bend a bit before the release. You'll figure it out.


Rest for two bars.

G|-----------------------------------------------------------------|
D|-----------------------------------------------------------------|
A|---------------------------5-------------------------------------|
D|-0-3-5-0-6-5-3-0-3-5-0-3-5-----0-3-5-0-6-5-3-0-3-5-0-3-5-5-------|

G|-----------------------------------------------------------------|
D|-----------------------------------------------------------------|
A|---------------------------5-------------------------------------|
D|-0-3-5-0-6-5-3-0-3-5-0-3-5-----0-3-5-0-6-5-3-0-6-5-3-0-6-5-3-0---|

G|-------------------------------|
D|-------------------------------|
A|-------3-------5-------3-------|
D|-00000---00000---00000---6-5-3-|x3

G|----------------------------------|
D|----------------------------------|
A|-------3-------5-------3----------|
D|-00000---00000---00000---6-5-3-0~-|

Rest for four bars.

G|----------------------|
D|----------------------|
A|----------------------|
D|-00-3p0-0-5p0-0-6-5-3-|x3

G|----------------------|
D|----------------------|  
A|------0-5-0---5-------|  
D|-00--6-----6-5--------| Repeat both bars x4

G|--------------------------|
D|--------------------------|
A|--------------------------|
D|-00-5h6p5-0-3h5-0-3h5p3-1-|x6

G|---------------------|
D|---------------------|
A|---------------------|
D|-0~-00---------------|x4

G|-------------------------------------------|
D|-------------------------------------------|
A|-----------------------------------------3-|
D|-00-3p0-0---00-3p0-0---00-3p0-0---00---33--|x11

G|---------------------------------------|
D|---------------------------------------|
A|---------------------5-3-0-------------|
D|-00-3p0-0---00-3p0-0-------33-3h5-0~---|
Suggest correction
Give kudos to tab author, rate the tab!
1 2 3 4 5
comments
print report bad tab
1 comment total.
0 reply
pikelsnowed 10 Jun 15, 2015 07:59 PM

didn't like this contribution

guest
You may want to rate the tab now too:
select rating
Wanna post a correction for this tab? Suggest correction