Oops, an error
Loading. Please wait.

Caution Dangerous Curves Ahead Bass Tab

3,739 views 1 this week
5 commentsread comments
1 2 3 4 5
excellent!
x 3
add to favorites
launch autoscroll
font size
0
reset
guitar tuner
Autoscroll
slow
fast
+/-
esc
set tempo
stop
Help us to improve Ultimate-Guitar.com Take our survey!
×
Author
Difficulty
Tuning
novice
D A D G B E
Tabbed By : HardcorenChrist
e-mail: empyreanishardcore@yahoo.com

Tuning: Dropped D

I'm pretty sure that this is 98% percent correct. I included times. Hope you like it. 
an awesome band and this song rocks hard!

Intro (0:00-0:15)
G|-----------------------------------------------|
D|-----------------------------------------------|4x
A|---------------5-------------------------------|
E|--6-5-0-3-0-3h5--00-00-00-0--------------------|

(0:15-0:29)
G|---------------------------------------------------------------------------|
D|---------------------------------------------------------------------------|
A|---------------------------------------------------------------------------|
E|--0-0-3-0------0-0-3-0------0-0-3-0------0-0-3-0------0------------0-0-3-0-|

(0:30-0:56)
G|-----------------------------------------------------------------------|
D|-----------------------------------------------------------------------|
A|-----------------------------------------------------------------------|
E|--0-3-0-6-6-5-0--0-3-0----0-3-0-6-6-5-0--0-3-0----0-3-0-6-6-5-0--0-3-0-|

G|-----------------------------------------------------------------------|
D|-----------------------------------------------------------------------|
A|-----------------------------------------------------------------------|
E|--0-3-0-6-6-5-0--0-3-0----0-3-0-6-6-5-0--0-3-0----0-3-0-6-6-5-0--0-3-0-|

G|-------------------------------------------------------------------|
D|-------------------------------------------------------------------|
A|-------------------------------------------------------------------|
E|--0-3-0-6-6-5-0--0-3-0----0-3-0-6-6-5-0--0-3-0----0-3-0-6-6-5-0----|

(0:56-1:17) 64 1/4 notes in here...
G|----------------------------------------------------------------------|
D|----------------------------------------------------------------------|
A|----------------------------------------------------------------------|
E|--xxxxxxxxxxxx-0-0-0-0-0-0-0-0-0-0-0-0-0-0-0-0-0-0-0-0-0-0-0-0-0-0-0--|

G|--------------------------------------------------------------------------|
D|--------------------------------------------------------------------------|
A|--------------------------------------------------------------------------|
E|--0-0-0-0-0-0-0-0-0-0-0-0-0-0-0-0-0-0-0-0-0-0-0-0-0-0-0-0-0-0-0-0-0-0-0-0-|

(1:18-1:29)
G|------------------------------------------|
D|------------------------------------------|3x
A|------------------------------------------|
E|--0-0-0-0-0-0-0-0-0-0---------------------|

(1:30-1:56)
G|------------------------------------------|
D|------------------------------------------|8x
A|------------------------5-8-5-------------|
E|--7-7-10-7-7-10-7-7-7-7-------------------|

(1:57-2:00)
G|---------------|
D|---------------|
A|--8--7--5--3---|
E|---------------|

(2:01-2:29)*End this riff on open "A"*
G|--------------------------------------------|
D|-------------------------3-2-0-2-0----------|4x
A|-0-0-0-0-3-3-3-3-2-2-2-2-----------3--------|
E|--------------------------------------------|

(2:30-2:49)
G|--------------------------------------------|
D|--------------------------------------------|4x
A|--------------------------------------------|
E|--00003000000000000000000000000000000000000-|

(2:50-3:04)
G|-----------------------------------------|
D|-----------------------------------------|4x
A|-----------------------------------------|
E|--000030--000-6-6-5-0--------------------|

(3:05-3:19)
G|------------------------------------------|
D|------------------------------------------|4x
A|------------------------------------------|
E|--000030000000000000003-000--6-6-5-0------|


| /  slide up
| \  slide down
| h  hammer-on
| p  pull-off
| ~  vibrato
| +  harmonic
| x  Mute note
Suggest correction new What's this?
You can suggest a correction to this tab. Community and Mods will review your correction and vote to approve or reject it.
comments
We did not receive enough feedback on this tab! Please rate:
print report bad tab
1 2 3 4 5
5 comments total. Showing first comments.
0 reply
skateswitch 71 wrote on May 21 2007, 12:27 pm

havent tried to play it yet, but you tabed the beginning right b/c i already know that part and thats exact to what i know

0 reply
ninjadeathbunny 13 wrote on August 21 2007, 11:53 am

good tab. played it and didnt hear anything wrong.

0 reply
pikelsnowed 14 wrote on June 15 2015, 07:38 pm, edited at 07:47 pm

Hmmm let me a moment... :P

guest
You may want to rate the tab now too:
select rating
Please do not post tabs as comments. Select "correction" instead!