Oops, an error
Loading. Please wait.

Caution Dangerous Curves Ahead Tab

version 3
version 3

Solo

Whole song

2,978 views 9 this week
no commentswrite comment
1 2 3 4 5
excellent!
x 3
add to favorites
launch autoscroll
font size
0
reset
how to read this tab
guitar tuner
Tab Pro tools
  • play this tab
  • loop segment
  • change instrument
  • show fretboard
  • metronome
Autoscroll
slow
fast
+/-
esc
set tempo
stop
Contributor
Difficulty
intermediate
INTRO:
0:00-0:14
E|--------------------------------------------------------------|
B|--------------------------------------------------------------|
G|--------------------------------------------------------------|
D|6-5----3------------------------------------------------------|   4x
A|6-5----3--------3*--0-0---0-0---0-0---0-----------------------|
D|6-5--0-3--0-3-5-----0-0---0-0---0-0---0-----------------------|
                 P.M.|-------------------|     
0:14-0:25
E|-----------------------------------------------------------------|
B|-----------------------------------------------------------------|
G|-----------------------------------------------------------------|
D|---------------------------------------------------0-------------|    1x
A|0-0----0---------0-0----0---------0-0----0---------0-------------|
D|0-0-3b-0---------0-0-3b-0---------0-0-3b-0---------0-------------|

0:25-0:32                                0:32-0:57
E|----------------------------------|    |----------------------------|
B|----------------------------------|    |----------------------------|
G|----------------------------------|    |----------------------------|
D|----------------------------------| 1x |----------------------------|    7x
A|-7*~------------------------------|    |----------------------------|
D|-------0-0-3b-0----0-3b-0-6-6-5-0-|    |-0-3b-0----0-3b-0-6-6-5-0---|

0:57-1:00
E|--------------------------------------------------------------|
B|--------------------------------------------------------------|
G|--------------------------------------------------------------|
D|X-X-X-X-X-X-X-X-X-X-X-X-0--0--0--0--0--0----------------------| 1x
A|X-X-X-X-X-X-X-X-X-X-X-X-0--0--0--0--0--0----------------------|
D|X-X-X-X-X-X-X-X-X-X-X-X-0--0--0--0--0--0----------------------|
                     P.M.|----------------|     


                               Dual solo  


First Guitar
1:00-1:14
E|--------------------------------13b-13~13\-/15-13-------------------------|
B|----------------------11h13p11~------------------15-13--------------------|
G|7~-10-9-10/12-10-10p9---------------------------------15-14-15-14-14h15p14|
D|--------------------------------------------------------------------------|
A|--------------------------------------------------------------------------|
D|--------------------------------------------------------------------------|

E|--------------------------------------------------------------------------|
B|--------------------------------------------------------------------------|
G|/10-9-10/12-10-9-10-9-7~--------------------------------------------------|
D|--------------------------------------------------------------------------|
A|--------------------------------------------------------------------------|
D|--------------------------------------------------------------------------|   
Second Guitar
1:00-1:14                                                               
E|--------------------------------\3-1--------------------------------------|
B|--------------------------6b-6/-----3-1-----------------------------------|
G|-------------------3h5p3----------------3-2-3-2-2h3p2---------------------|
D|0--3-2-3/5-3--3p2------------------------------------3-2-3/5--3-2-3-2-0---|
A|--------------------------------------------------------------------------|
D|--------------------------------------------------------------------------|




1:14-1:28
E|-----------------------------------------------------------------|
B|-----------------------------------------------------------------|
G|-----------------------------------------------------------------|
D|---0-0-0-0-0-0-0-0-0-0-------------------------------------------|    4x
A|---0-0-0-0-0-0-0-0-0-0-------------------------------------------|
D|---0-0-0-0-0-0-0-0-0-0-------------------------------------------|
P.M.|-------------------|     


1:28-1:35
E|-----------------------------------------------------------------|
B|-----------------------------------------------------------------|
G|-----------------------------------------------------------------|
D|7-7-10-7--7-10-7--7-7----------------7-7-10-7--7-10-7--7-7-9*----|    1x
A|7-7-10-7--7-10-7--7-7--5-8-5~--------7-7-10-7--7-10-7--7-7-------|
D|7-7-10-7--7-10-7--7-7----------------7-7-10-7--7-10-7--7-7-------|



2x before and  during the solo
1:35-1:57
E|-------------------------------------------------------------------|
B|-------------------------------------------------------------------|       
G|-------------------------------------------------------------------|     
D|7-7-10-7--7-10-7--7-7----------------7-7-10-7--7-10-7--7-7---------|
A|7-7-10-7--7-10-7--7-7--5-8-5~--------7-7-10-7--7-10-7--7-7--5-8-5~-|
D|7-7-10-7--7-10-7--7-7----------------7-7-10-7--7-10-7--7-7---------|

1:57-2:00
E|------------------|
B|------------------|
G|--------10-9-7-5--|
D|---------x-x-x-x--|   1x
A|---------8-7-5-3--|
D|------------------|

2:00-2:28
E|---------------------------------------------------------|
B|---------------------------------------------------------|
G|-----------------5/7----10-9\7/9\7\5---------------------|
D|-------0------3--x-x-5---x-x-x-x-x-x---------------------|   4x
A|-------0--0-2-3--3/5-5---8-7\5/7\5\3---------------------|
D|-------0--0-2-3------5-----------------------------------|

2:28-2:35    2:35-2:48                                           2:49   
E|----------|----------------------------------------------|     ----------|
B|----------|----------------------------------------------|     ----------|
G|----------|----------------------------------------------|     ----------|
D|-0~----0--|----------------------------------------------| 4x  ----------|
A|-0~----0--|----------------------------------------------|     ----------|
D|-0~----0--|--00003~000000000000000000000000000000000000--|     ------5*~-|
           P.M.|-----------------------------------------|        
2:50-3:04
E|---------------------------|
B|---------------------------|
G|---------------------------|
D|---------------------------|   4x
A|---------------------------|
D|--00003~0---000--/6-6-5-0--|

3:04-3:18
E|----------------------------------------|
B|----------------------------------------|
G|----------------------------------------|
D|----------------------------------------|   4x
A|----------------------------------------| 
D|--00003~0000000000000003~0---6-6-5-0----|


* Pinch Harmonic
~ Vibrato
h Hammer On
p Pull Off
- Palm Mute
/ Slide Up
\ Slide Down
b Bend
x Muted Note

comments
We did not receive enough feedback on this tab! Please rate:
print report bad tab
1 2 3 4 5
I want to post or [tab]
guest
You may want to rate the tab now too:
select rating
Please do not post tabs as comments. Select "correction" instead!