Oops, an error
Loading. Please wait.

Darkest Of Kin Bass Tab

2,896 views 1 this week
no commentswrite comment
1 2 3 4 5
2 more votes to show rating
add to favorites
launch autoscroll
font size
0
reset
guitar tuner
Autoscroll
slow
fast
+/-
esc
set tempo
stop
Help us to improve Ultimate-Guitar.com Take our survey!
×
Author
Tuning
D A D G B E
Song: Darkest of Kin
Artist: Maylene and the Sons of Disaster
Album: II
Tabbed by Mark VandenBroek

Note: most of the repeated notes arent the exact amount of hits on that note

G|-------------------------|-----------------------------------|
D|-------------------------|-(this is over the guitar fill)----|
A|-------------------------|-----------------------------------|
D|--0-0-00-3/5-3/5-3/5-----|---00000000000---------------------|


G|--------------------|-----------------------------------|
D|--------------------|-----------------------------------|
A|--------------------|-----------------------------------|
D|--5555555555555555--|--0-0-00-3/5-3/5-3/5---------------|


G|-------------------------------------|-----------------------------------|
D|-------------------------------------|-----------------------------------|
A|-------------------------------------|-----------------------------------|
D|--5----(just play it a whole bunch)--|--3-00000-00000-00000-0000---------|


		      x2		1st ending		     	
G|-------------------------|-----------------------------|
D|------------0-3h6--------|-----------------------------|
A|------0-3h5-------0-3h5--|--555555555-33-555555555-33--|
D|0-3h5--------------------|-----------------------------|
                                                          2nd ending
                                      A|-----------------------------|
                                      D|--5555555555-33-555555555-33-|


G|----------------------------------------------------------|
D|----------------------------------------------------------|
A|----------------------------------------------------------|
D|--0-0-00-7p0-5p0-3p0---0-0-00-7p0-5p0-3p0-5p0-------------|


G|------------------------------|----------------------|
D|-------3-5-----3-5--3h5p3-3---|----------------------|
A|---3-5-----3-5-----------5-5--|----------------------|
D|------------------------------|--0-0-00-3/5-3/5-3/5--|


G|---------------------|
D|---------------------|
A|---------------------|
D|--6-5---3--6-5---0---|

		      
G|-------------------------|
D|-------------------------|
A|--------------------3-5--|
D|--3-3-3-5-5-5-6-6-6------|


G|-----------------------------------|
D|-----------------------------------|
A|--3-3-3-5-5-5-6-6-6-5h6p5-3h5p3p0--|
D|-----------------------------------|


G|-----------------------------------------------------------|
D|-----------------------------------------------------------|
A|--5h6p5p0-3h5p3p0-5h6p5p0-3h5p3p0-5h6p5p0-3h5p3p0-5h6p5p0--|
D|-----------------------------------------------------------|

Suggest correction
Give kudos to tab author, rate the tab!
1 2 3 4 5
comments
print report bad tab
guest
You may want to rate the tab now too:
select rating
Wanna post a correction for this tab? Suggest correction