Oops, an error
Loading. Please wait.

Darkest Of Kin Tab

version 1
version 1

Whole song

17,763 views 18 this week
4 commentsread comments
1 2 3 4 5
accurate
x 4
add to favorites
launch autoscroll
font size
0
reset
how to read this tab
guitar tuner
Autoscroll
slow
fast
+/-
esc
set tempo
stop
Help us to improve Ultimate-Guitar.com Take our survey!
×
Author
Difficulty
Tuning
novice
D A D G B E
-------------------------------------------------------------------------------
        "Darkest of Kin" - Maylene and the Sons of Disaster
-------------------------------------------------------------------------------
Tabbed by: Michael Cook
Email: michaelcook01@yahoo.com
Myspace: myspace.com/michaeldcook

All right I tabbed this at like 4:30 in the morning. It's everything you'll need to play 
song. It's a tad bit sloppy but i was trying to save space

Tuning:Drop D - (Low to High) DADGBe

e|---------------------------|-----------------|-----------------------------|
B|---------------------------|-----------------|-----------------------------|
G|---------------------------|-----------------|-----------------------------|
D|--0-0000-0h3h5-0h3h5-3h5-0-|--3p0------------|-----------------------------|
A|--0-0000-0h3h5-0h3h5-3h5-0-|------5p0-3p0-5--|-----------------------------|
D|--0-0000-0h3h5-0h3h5-3h5-0-|-----------------|-----------------------------|
      ....


e|---------------------------------------------------------------------------|
B|---------------------------------------------------------------------------|
G|---------------------------------------------------------------------------|
D|-5555555555555555--0-0000--------------3-0-0000-------------3--------------|
A|-5555555555555555--0-0000--------------3-0-0000-------------3--------------|
D|-5555555555555555--0-0000--3p0-0-3p0-0-3-0-0000-3p0-0-3p0-0-3--------------|
                       ....                  ....


(This is kinda rough, but you should be able to get it from this.)
e|----------------------------------|-----------------------------------------|
B|----------------------------------|-----------------------------------------|
G|----------------------------------|-----------------------------------------|
D|-50300050300000005030005030503050-|-3-0000-000000-000000-000000-------------|
A|----------------------------------|-3-0000-000000-000000-000000-------------|
D|----------------------------------|-3-0000-000000-000000-000000-------------|
                                        .... ...... ...... ......

                    (once again a bit rough)
e|-----------------|-------------------|--------------------------------------|
B|-----------------|-------------------|--------------------------------------|
G|-----------------|-------------------|--------------------------------------|
D|---------3h5-----|-------------------|--------------------------------------|
A|-----3h5-----3h5-|-3333333333333-3-5-|--------------------------------------|
D|-3h5-------------|-------------------|-33333333333333333333333--------------|


                                          (This is also played an octave up)
e|---------------------------------------|------------------------------------|
B|---------------------------------------|------------------------------------|
G|---------------------------------------|------------------------------------|
D|---------------------------------------|------3-5-----3-5-3h53---3----------|
A|---------------------------------------|-----------------------5---5--------|
D|-0-00-6-00-5-00-3---0-00-6p0-5p0-3p0-5-|--3-5-----3-5-----------------------|

e|--------------------|-------------------------------------------------------|
B|--------------------|-------------------------------------------------------|
G|--------------------|-------------------------------------------------------|
D|-6-5-0-3---6-5-0-0--|-------------------------------------------------------|
A|-6-5-0-3---6-5-0-0--|-------------3-5---------------------------------------|
D|-6-5-0-3---6-5-0-0--|-333-555-666-------------------------------------------|
       .         .


e|-------------|--------------------------------------------------------------|
B|-------------|--------------------------------------------------------------|
G|-------------|--------------------------------------------------------------|
D|-------------|--------------------------------------------------------------|
A|-333-555-666-|-5h6p5-3-5p3-0------------------------------------------------|
D|-------------|--------------------------------------------------------------|

| /  slide up
| \  slide down
| h  hammer-on
| p  pull-off
| ~  vibrato
| +  harmonic
| x  Mute note
===============================================================================
Suggest correction
comments
print report bad tab
4 comments total. Showing first comments.
0 reply
mdc017 92 wrote on July 16 2007, 08:18 am

aghhhh i messed up.

the big line of threes on the A string should be 5's. didn't notice until after the upload.

0 reply
llama_guitarist 41 wrote on July 16 2007, 03:15 pm

yeah, that's what i was gonna say, other than that, good job. too bad you don't have the solos though.

0 reply
bokma 10 wrote on July 27 2007, 07:17 pm

i love this song
THANKYOU!

guest
You may want to rate the tab now too:
select rating
Please do not post tabs as comments. Select "correction" instead!