Oops, an error
Loading. Please wait.

Dry The River Bass Tab

version 1
version 1

Whole song

Interactive

3,645 views 1 this week
1 commentread comment
1 2 3 4 5
excellent!
x 3
add to favorites
launch autoscroll
font size
0
reset
guitar tuner
Tab Pro tools
  • play this tab
  • loop segment
  • change instrument
  • show fretboard
  • metronome
Autoscroll
slow
fast
+/-
esc
set tempo
stop
Difficulty
Tuning
novice
D A D G B E
Dry the River - Maylene and the Sons of Disaster

Tabbed by TehGreekStallion



0:00-0:24  Guitar intro, no bass

0:25-0:37  Verse Riff 1

G-----------------------------|
D-----------------------------|
A-----------------------------|
D--5225225225222222-----------|
                                >play these 2x
G-----------------------------|
D-----------------------------|
A-----------------------------|
D--522522--5777777-5-2--------|


0:37-0:55  Verse Riff 2

G-----------------------------|
D-----------------------------|
A-----------------------------|
D--2-5-2-0--------0-2-5-5-----| play this 6x


0:56-1:04  Chorus Part 1

G-----------------------------|
D-----------------------------|
A-----------------------------|
D--5-5555555--0-000000--------|

G-----------------------------|
D-----------------------------|
A-----------------------------|
D--7-7777777--2-222222--------|

G-----------------------------|
D-----------------------------|
A-----------------------------|
D--5-5555555--7-777777--------|


1:05-1:07  Chorus Part 2

G-----------------------------|
D-----------------------------|
A-----------------------------|
D--5-2-5-2-52--5-2-5-2-52-----|

Repeat both chorus parts 2x


1:20-1:32  Post Chorus

G-----------------------------|
D-----2-0---------------------|
A---------2--2--2-------------|
D--2-5-----5--5--5------------| play this 4x


1:33-1:44

G-----------------------------|
D-----------------------------|
A-----------------------------|
D--2-2222--------55-----------|
                               >play these 2x
G-----------------------------|
D-----------------------------|
A-----------------------------|
D--2-2222----99-7-5-----------|


1:45-1:51  Pre Chorus

G-----------------------------|
D-----------------------------|
A-----------------------------|
D--2-2--5-5--7-7--8-----------|

G-----------------------------|
D-----------------------------|
A--567--567--567-7-7-7\-------|
D-----------------------------|


1:52-2:13  Play chorus part 1, chorus part 2, chorus part 1


2:14-2:19  Play verse riff 1


2:20-2:25  Guitar solo, no bass


2:26-2:31  Play verse riff 1


2:32-2:44  Alternate Verse

G-----------------------------|
D-----------------------------|
A-----------------------------|
D--8558558558555555-----------|
                               >play these 2x
G-----------------------------|
D-----------------------------|
A-----------------------------|
D--855855-8101010101010-8-5---|


2:45-2:56

G-----------------------------|
D-----------------------------|
A-----------------------------|
D--5225225225222222-----------|

G-----------------------------|
D-----------------------------|
A-----------------------------|
D--522522--577777-------------|


2:57-3:09

G-----------------------------|
D-----------------------------|
A--567--567--567--567---------|
D-------------------------5-2-| play this 3x

G-----------------------------|
D-----------------------------|
A--567--567--567--567-7777777-|
D-----------------------------|


3:10-3:37  Play chorus parts 1&2 (repeat them both)


3:38  End the song with these notes

G--------|
D--------|
A--567---|
D--------|
comments
We did not receive enough feedback on this tab! Please rate:
print report bad tab
1 2 3 4 5
1 comment total.
-1 reply
ninjadeathbunny wrote on January 20 2008, 10:10 pm

good tab..... on the verse riff 1 when it goes from 5 to 7 i believe its a slide but it's still a good tab

I want to post or [tab]
guest
You may want to rate the tab now too:
select rating
Please do not post tabs as comments. Select "correction" instead!