Oops, an error
Loading. Please wait.

Dry The River Tab

version 1
version 1

Whole song

Interactive

8,972 views 6 this week
1 commentread comment
1 2 3 4 5
accurate
x 5
add to favorites
launch autoscroll
font size
0
reset
how to read this tab
guitar tuner
Autoscroll
slow
fast
+/-
esc
set tempo
stop
Help us to improve Ultimate-Guitar.com Take our survey!
×
Author
Difficulty
Tuning
novice
D A D G B E
Guitar Intro:

E-------------------------------|
B-------------------------------|
G--15b-15b-15b-15b-15-12-12-12--|
D-------------------------------|
A-------------------------------|
D-------------------------------|

E----------121512--------------------|
B------1215------1512------12--------|
G--1215--------------151215--1512----|
D--------------------------------14--|
A------------------------------------|
D------------------------------------|

E-------------------------------|
B-------------------------------|
G-12~--12~--12~--12~------------|
D----14---14---14---1414141414--|
A-------------------------------|
D-------------------------------|
                                 >2x
E-------------------------------|
B-------------------------------|
G-12~--12~--12141414141412------|
D----14---14--------------14----|
A-------------------------------|
D-------------------------------|

Verse:

E-----------------------------|
B-----------------------------|
G-----------------------------|
D--5X-0X-2X-2X-2X2X-----------|
A--5X-0X-2X-2X-2X2X-----------|
D--5X-0X-2X-2X-2X2X-----------|
                               > 2x
E-----------------------------|
B-----------------------------|
G-----------------------------|
D--5X-0X-5777777-5-2----------|
A--5X-0X-5777777-5-2----------|
D--5X-0X-5777777-5-2----------|

                            E------------|
                            B------------|
                            G------------|
                            D------------|
                            A------------|
Then some of variations of  D--2-5-2-0---|


Chorus Part A (play A to B through twice):

E-------------------------|
B-------------------------|
G-------------------------|
D--5-5555555--00000000----|
A--5-5555555--00000000----|
D--5-5555555--00000000----|

E-------------------------|
B-------------------------|
G-------------------------|
D--7-7777777--22222222----|
A--7-7777777--22222222----|
D--7-7777777--22222222----|

E-------------------------|
B-------------------------|
G-------------------------|
D--5-5555555--77777777----|
A--5-5555555--77777777----|
D--5-5555555--77777777----|

Chorus Part B:

E-------------------------|
B-------------------------|
G-------------------------|
D-------------------------|
A-------------------------|
D--5-2-5-2-52--5-2-5-2-52-|

Post Chorus:

E-------------------|
B-------------------|
G-------------------|
D-----2-------------| 4x
A-------5-2--2--2---|
D--2-5-----5--5--5--|

Verse:

E----------------------|
B----------------------|
G----------------------|
D--2-2222--------55----|
A--2-2222--------55----|
D--2-2222--------55----|
                        >2x
E----------------------|
B----------------------|
G----------------------|
D--2-2222----99-7-5----|
A--2-2222----99-7-5----|
D--2-2222----99-7-5----|

Pre Chorus:

E----------------------|
B----------------------|
G----------------------|
D--2-2--5-5--7-7--8----|
A--2-2--5-5--7-7--8----|
D--2-2--5-5--7-7--8----|

E----------------------|
B----------------------|
G----------------------|
D----------------------|
A--567--567--567-7-7-7-|
D----------------------|

Chorus Portion (Remember: A to B through twice)

Chorus Part B 2x (This is in addition to the chorus)

E-------------------------------|
B-------------------------------|
G--15b-15b-15b-15b-15-12-12-12--|
D-------------------------------|
A-------------------------------|
D-------------------------------|

E----------121512--------------------|
B------1215------1512------12--------|
G--1215--------------151215--1512----|
D--------------------------------14--|
A------------------------------------|
D------------------------------------|

E-------------------------------|
B-------------------------------|
G-12~--12~--12~--12~------------|
D----14---14---14---1414141414--|
A-------------------------------|
D-------------------------------|

E-------------------------------|
B-------------------------------|
G-12~--12~--12141414141412------|
D----14---14--------------14----|
A-------------------------------|
D-------------------------------|

Altered Verse:

E-----------------------------|
B-----------------------------|
G-----------------------------|
D--8558558558555555-----------|
A--8558558558555555-----------|
D--8558558558555555-----------|
                               > 2x
E-----------------------------|
B-----------------------------|
G-----------------------------|
D--855855-8101010101010-8-5---|
A--855855-8101010101010-8-5---|
D--855855-8101010101010-8-5---|

E-----------------------------|
B-----------------------------|
G-----------------------------|
D--5225225225222222-----------|
A--5225225225222222-----------|
D--5225225225222222-----------|
                               > 2x
E-----------------------------|
B-----------------------------|
G-----------------------------|
D--522522--5777777-5-2--------|
A--522522--5777777-5-2--------|
D--522522--5777777-5-2--------|

E-------------------------|
B-------------------------|
G-------------------------|
D---------------------5>2-| 3x
A--567--567--567--567-5>2-|
D---------------------5>2-|

E----------------------|
B----------------------|
G----------------------|
D----------------------|
A--567--567--567-7-7-7-|
D----------------------|

Chorus

Chorus Part B 2x

End on:

E-------|
B-------|
G-------|
D-------|
A--567--|
D-------|
Suggest correction
What's this?
You can suggest a correction to this tab. Community and Mods will review your correction and vote to approve or reject it.
comments
print report bad tab
1 comment total.
0 reply
Tehzekester 1,508 wrote on June 19 2007, 03:21 pm

nice tab man, 5*

guest
You may want to rate the tab now too:
select rating
Please do not post tabs as comments. Select "correction" instead!