Oops, an error
Loading. Please wait.

Dry The River Tab

version 2
version 2

Whole song

Interactive

27,707 views 6 this week
20 commentsread comments
1 2 3 4 5
excellent!
x 22
add to favorites
launch autoscroll
font size
0
reset
how to read this tab
guitar tuner
Autoscroll
slow
fast
+/-
esc
set tempo
stop
Help us to improve Ultimate-Guitar.com Take our survey!
×
Author
-------------------------------------------------------------------------------
                Dry the River - Maylene and the Sons of Disaster
-------------------------------------------------------------------------------
Tabbed by: Michael Cook
Email: michaelcook01@yahoo.com
Myspace: myspace.com/michaeldcook

This is pretty much everything you need to play this song. I couldn't believe there 
any tabs up for this yet. Anyway, have fun with this song. Any questions, comments,
suggestions, then hit me up.

Tuning: Drop D = (High to low) DADGBE

PM or . = Palm Mute


(Intro/Solo)
e|--------------------------------------------------------------12-15-12--------|
B|--------12---------12-------12-------12-----------------12-15----------15-----|
G|-15b16-----15b16------15b16----15b16----15-121212-12h15-----------------------|
D|------------------------------------------------------------------------------|
A|------------------------------------------------------------------------------|
D|------------------------------------------------------------------------------|

e|------------------------------------------------------------------------------|
B|-12-----------12-----------12b12.5-----12b12.5----12b12.5----12b12.5----------|
G|----15-12-15-----15-12-----12b12.5-----12b12.5----12b12.5----12b12.5----------|
D|-----------------------14----------14----------14---------14--------1414141414|
A|------------------------------------------------------------------------------|
D|------------------------------------------------------------------------------|
                                     pm          pm         pm
e|--------------------------------------------------------------------------|
B|-12b12.5----12b12.5----12/14-1414141414-12--------------------------------|
G|-12b12.5----12b12.5----12/14 1414141414-12--------------------------------|
D|---------14---------14---------------------14-----------------------------|
A|--------------------------------------------------------------------------|
D|--------------------------------------------------------------------------|
           pm         pm                        (play this twice)


(Verse part 1)
e|---------------------------------------------------------------------------|
B|---------------------------------------------------------------------------|
G|---------------------------------------------------------------------------|
D|-5-22--5--22--5-22222222--5-22--5-22--2/77777-5-2--------------------------|
A|-5-22--5--22--5-22222222--5-22--5-22--2/77777-5-2--------------------------|
D|-5-22--5--22--5-22222222--5-22--5-22--2/77777-5-2--------------------------|
     ..     ..    ........    ..    ..
(Pre-chorus)
e|---------------------------------------------------------------------------|
B|---------------------------------------------------------------------------|
G|---------------------------------------------------------------------------|
D|---------------------2-5-2-0-0-2-5-5-|555555|------------------------------|
A|---------------------2-5-2-0-0-2-5-5-|555555|------------------------------|
D|2-5-2-0--0-2-5-5-----2-5-2-0-0-2-5-5-|555555|------------------------------|
  (Low Part)           (Chord part)

(Chorus)
e|---------------------------------------------------------------------------|
B|---------------------------------------------------------------------------|
G|-----2---------------------------------------------------------------------|
D|-5-0-2-2-5-0---------------------------------------------------------------|
A|-5-0-0-2-5-0---------------------------------------------------------------|
D|-5-0---2-5-0----5-2-5-2-5-2---5-2-5-2-5-2----------------------------------|
(Chords)

(Post chorus)
e|---------------------------------------------------------------------------|
B|---------------------------------------------------------------------------|
G|---------------------------------------------------------------------------|
D|-----2---------------------------------------------------------------------|
A|-------5-2---2---2---------------------------------------------------------|
D|-2-5-------5---5---5-------------------------------------------------------|

e|---------------------------------------------------------------------------|
B|---------------------------------------------------------------------------|
G|---------------------------------------------------------------------------|
D|-22-222-2--55-22-222-2--99-7-5---------------------------------------------|
A|-22-222-2--55-22-222-2--99-7-5---------------------------------------------|
D|-22-222-2--55-22-222-2--99-7-5---------------------------------------------|
      ...          ...
e|---------------------------------------------------------------------------|
B|---------------------------------------------------------------------------|
G|---------------------------------------------------------------------------|
D|-22-55-77-8----------------------------------------------------------------|
A|-22-55-77-8--567-567-567-7-7-7\--------------------------------------------|
D|-22-55-77-8----------------------------------------------------------------|


(After second chorus/solo)
e|---------------------------------------------------------------------------|
B|---------------------------------------------------------------------------|
G|---------------------------------------------------------------------------|
D|-8-55-8-55-8-55555555-8-55-8-55-5/101010101010-8-5-------------------------|
A|-8-55-8-55-8-55555555-8-55-8-55-5/101010101010-8-5-------------------------|
D|-8-55-8-55-8-55555555-8-55-8-55-5/101010101010-8-5-------------------------|
     ..   ..   ........   ..   ..

(Riff?)
e|---------------------------------------------------------------------------|
B|---------------------------------------------------------------------------|
G|---------------------------------------------------------------------------|
D|-----------------5-2-------------------------------------------------------|
A|-567-567-567-567-5-2-------------------------------------------------------|
E|-----------------5-2-------------------------------------------------------|

| /  slide up
| \  slide down
| h  hammer-on
| p  pull-off
| ~  vibrato
| +  harmonic
| x  Mute note
===============================================================================
Suggest correction
What's this?
You can suggest a correction to this tab. Community and Mods will review your correction and vote to approve or reject it.
comments
print report bad tab
20 comments total. Showing first comments.
0 reply
Metagloria 12 wrote on April 9 2007, 04:18 pm

now this is a solid tab. great job.

0 reply
mdc017 101 wrote on April 10 2007, 08:10 pm

thanks. this is my first tab. I had it all figured out by ear for a while and when i saw that no one posted a tab yet i figured i would.

0 reply
nilnoc23 16 wrote on April 11 2007, 09:26 am

awesome dude. i had already learned this song and played along with the song with your tab and it was pretty close to spot on.

finnally someone who can tab a decent maylene tab.

lol, have you seen the lady at the gate tab?

thats a pretty fun song to play

i might tab that later.

good job

guest
You may want to rate the tab now too:
select rating
Please do not post tabs as comments. Select "correction" instead!