Oops, an error
Loading. Please wait.

Gusty Like The Wind Bass Tab

815 views 1 this week
no commentswrite comment
1 2 3 4 5
3 more votes to show rating
add to favorites
launch autoscroll
font size
0
reset
guitar tuner
Autoscroll
slow
fast
+/-
esc
set tempo
stop
Help us to improve Ultimate-Guitar.com Take our survey!
×
Author
Difficulty
Tuning
novice
D A D G B E
Drop D tuning

Riff 1

G -----------------------  ------------------------|
D -----------------------x3------------------------|x1
A ----5----5--7-8--------  ----5----5--875---------|
D 0000--000--0-0---------  0000--000--0------------|

Riff 2

G -----------------------  ------------------------|
D -----------------------x3------------------------|x1
A ----8----8--10-11------  ----8----8--11 10 8-----|
D 0000--000--0--0--------  0000--000--0------------|

Verse 1

G ---------------------|
D ---------------------|x8
A ---------------------|
D 7s---3---3h5-000-000-|

Chorus

G ---------------------------------|
D ---------------------------------|x4
A --------0-0000003-333333---------|
D 3-333333----------------5-555555-|

Riff 1

Verse 2 or break or w/e you wanna call it =P
I had mute after every note except ones directly beside eachother

G ---------------  -----  ---------------  --------------------------------|
D ---------------x8-----x8---------------x4--------------------------------|
A ---------------  -----  ---------------  --------------------------------|
D 0-0-300-0-0-300  --00-  0-0-300-0-0-987  3333303033333030333330307777777-|

Chorus

This my favorite song by Maylene
Suggest correction
Give kudos to tab author, rate the tab!
1 2 3 4 5
comments
print report bad tab
guest
You may want to rate the tab now too:
select rating
Wanna post a correction for this tab? Suggest correction