Oops, an error
Loading. Please wait.

Gusty Like The Wind Tab

version 1
version 1

Whole song

1,613 views 1 this week
no commentswrite comment
1 2 3 4 5
worth learning
x 1
add to favorites
launch autoscroll
font size
0
reset
how to read this tab
guitar tuner
Tab Pro tools
  • play this tab
  • loop segment
  • change instrument
  • show fretboard
  • metronome
Autoscroll
slow
fast
+/-
esc
set tempo
stop
Contributor
Difficulty
Tuning
intermediate
D A D G B E
-------------------------------------------------------------------------------
                           Gusty like the wind-Maylene and the fucking sons of disaster
-------------------------------------------------------------------------------
Tabbed by:shaun
Email:wouldnt you like to know

Tuning:drop D

intro I: 3x
e|----------------------------------------------------------------------------------|
B|----------------------------------------------------------------------------------|
G|----------------------------------------------------------------------------------|
D|----------------------------------------------------------------------------------|
A|-------------5--------5---5--7---8------------------------------------------------|
E|------0000------000-----0--0---0--------------------------------------------------|

intro II:
e|---------------------------------------------------------------------------------|
B|---------------------------------------------------------------------------------|
G|---------------------------------------------------------------------------------|
D|---------------------------------------------------------------------------------|
A|----------5-----5---8-7-5-------5-----8----8--10--12------8---8--12-10-8---------|
E|-----0000---000---0---------0000--000---0---0---0-----000--00--0-----------------|

Break I
e|----------------------------------------------------------------------------------|
B|----------------------------------------------------------------------------------|
G|----------------------------------------------------------------------------------|
D|--7-----3-----5-----0-------------------------------------------------------------|
A|--7-----3-----5-----0-------------------------------------------------------------|
E|--7-----3-----5-----0-------------------------------------------------------------|

e|---------------------------------------------------------------------------------|
B|---------------------------------------------------------------------------------|
G|--9-----5---7--------------------------------------------------------------------|
D|--x-----x---x-------0------------------------------------------------------------|
A|--7-----3---5-------0------------------------------------------------------------|
E|--------------------0------------------------------------------------------------|

Chorus:
e|---------------------------------------------------------------------------------|
B|---------------------------------------------------------------------------------|
G|---2----5-----9------------------------------------------------------------------|
D|---x----x-----x------5-----------------------------------------------------------|
A|---0----3-----7------x-----------------------------------------------------------|
E|---------------------5-----------------------------------------------------------|
comments
We did not receive enough feedback on this tab! Please rate:
print report bad tab
1 2 3 4 5
I want to post or [tab]
guest
You may want to rate the tab now too:
select rating
Please do not post tabs as comments. Select "correction" instead!