Oops, an error
Loading. Please wait.

Hell On The Rise Tab

version 1
version 1

Whole song

Interactive

1,113 views 1 this week
no commentswrite comment
1 2 3 4 5
please rate
add to favorites
launch autoscroll
font size
0
reset
how to read this tab
guitar tuner
Autoscroll
slow
fast
+/-
esc
set tempo
stop
Help us to improve Ultimate-Guitar.com Take our survey!
×
Author
Difficulty
Tuning
intermediate
D A D G B E
Maylene and the Sons of Disaster!
Hell on the Rise
tabbed by Hurricane Andy

This is the song as I play it, however there are three guitarists in the band and I have
idea which one of them plays what. So i'm just tabbing out what I learned off of the
And i'm definately not going to try to label different parts of the song (chorus, verse,
bridge, etc) because most of their songs don't follow structure. So i'm labelling by lyric.


INTRO: DRESSED LIKE ANGELS
E|------------------------------------------------------------------|
B|------------------------------------------------------------------|
G|2--5-4-0-2--------------------------------------------------------|
D|------------------------------------------------------------------|
A|------------5--3-2---2--------------------------------------------|
D|-------------------5----------------------------------------------|
eight times

AMBIENCE FORETOLD AND NOW THIS STONE IS CAVING FROM WITHIN
E|------------------------------------------------------------------|
B|------------------------------------------------------------------|
G|--------------2--2-2-5--5-5-3--3-3-3-3-3-3-2--2-2-2-2-2-2---------|
D|3--3-3-5--5-5-2--2-2-5--5-5-3--3-3-3-3-3-3-2--2-2-2-2-2-2---------|
A|3--3-3-5--5-5-0--0-0-3--3-3-1--1-1-1-1-1-1-0--0-0-0-0-0-0---------|
D|3--3-3-5--5-5-----------------------------------------------------|
four times

AN INSTRUMENTAL PART
E|---------------------|------------------------------|-------------|
B|---------------------|------------------------------|-------------|
G|---------------------|------------------------------|-------=-----|
D|-----------0-0-------|3-5-0-0-0------0-0------------|3-5-0--------|
A|0-0-3p0-5--0-0-3-4-5-|3-5-0-0-0-3-5--0-0-3-4-5------|3-5-0--------|
D|-----------0-0-------|3-5-0-0-0------0-0------------|3-5-0--------|
                        Play this part 3 times, then-> this once.

WHORES WITH HALOS WISHING FOR WINGS
E|------------------------------------------------------------------|
B|------------------------------------------------------------------|
G|------------------------------------------------------------------|
D|0--0--0--3-5--5--5-3-5-6--6--6-5-3-0--0--0-0-3--------------------|
A|0--0--0--3-5--5--5-3-5-6--6--6-5-3-0--0--0-0-3--------------------|
D|0--0--0--3-5--5--5-3-5-6--6--6-5-3-0--0--0-0-3--------------------|
four times!

GIVE US THAT POTION..
E|---------------------------------------------------------------------------|
B|---------------------------------------------------------------------------|
G|---------------------------------------------------------------------------|
D|0--0----------------0--0-3p0h3----------0--0----------------0-0--543-------|
A|0--0-3p0h3----------0--0----------------0--0-3p0h3----------0-0-----543----|
D|0--0--------0h3p0-0-0--0--------0h3p0-0-0--0--------0h3p0-0-0-0--------543-|
four times!

YOU WANT THE PACK WHERE BLAZIN THROUGH
RUN FOR THE HILLS THE SOUTH'S GONNA TAKE YOU!
E|------------------------------------------------------------------|
B|------------------------------------------------------------------|
G|------------------------------------------------------------------|
D|------------------------------------------------------------------|
A|------------------------------------------------------------------|
D|0--0h3p0-0-0--0h3p0-0-0--0h3p0-0-0--0-5h6p5-5---------------------|
four times!

WHORES WITH HALOS WISHING FOR WINGS
E|------------------------------------------------------------------|
B|------------------------------------------------------------------|
G|------------------------------------------------------------------|
D|0--0--0--3-5--5--5-3-5-6--6--6-5-3-0--0--0-0-3--------------------|
A|0--0--0--3-5--5--5-3-5-6--6--6-5-3-0--0--0-0-3--------------------|
D|0--0--0--3-5--5--5-3-5-6--6--6-5-3-0--0--0-0-3--------------------|
four times!

INSTRUMENTAL 2:(all open strums are palm muted)
E|-----------------------------------------------------------------------|
B|-----------------------------------------------------------------------|
G|-----------------------------------------------------------------------|
D|0-0--------0-0--------3-5-0-0-0----------------------------------------|
A|0-0-3p0-5--0-0-3-4-5--3-5-0-0-0----------------------------------------|
D|0-0--------0-0--------3-5-0-0-0----------------------------------------|
four times!  

INSTUMENTAL 2:PART TWO!?
E|---|-------------------------------------------------------------------|
B|---|-------------------------------------------------------------------|
G|---|-------------------------------------------------------------------|
D|0-0|--------0-0-----------3-5-0-0-0------------------------------------|
A|0-0|3-3-5-5-0-0-3-3-4-5-5-3-5-0-0-0------------------------------------|
D|0-0|--------0-0-----------3-5-0-0-0------------------------------------|
     |FOUR TIMES!           



E|--------|
B|--------|
G|--------|
D|3-5-0---|
A|3-5-0---|
D|3-5-0---|
end on this.


That's it, I hope this helps you play some music from the best band ever. 


Suggest correction
What's this?
You can suggest a correction to this tab. Community and Mods will review your correction and vote to approve or reject it.
comments
We did not receive enough feedback on this tab! Please rate:
print report bad tab
1 2 3 4 5
guest
You may want to rate the tab now too:
select rating
Please do not post tabs as comments. Select "correction" instead!