Oops, an error
Loading. Please wait.

In Dead We Dream Tab

972 views 1 this week
no commentswrite comment
1 2 3 4 5
please rate
add to favorites
launch autoscroll
font size
0
reset
how to read this tab
guitar tuner
Tab Pro tools
  • play this tab
  • loop segment
  • change instrument
  • show fretboard
  • metronome
×
Best way to learn
"In Dead We Dream"
Autoscroll
slow
fast
+/-
esc
set tempo
stop
Contributor
Difficulty
Tuning
novice
D A D G B E
Song: In Dead We Dream
Artist: Maylene & the Sons of Disaster
Album: IV
Tuning: Drop D
Difficulty: Novice
What Part: EVERYTHING UP TO THE SOLO

~Enjoy~

Intro:
e|-------------------------------------------------------|
B|-------------------------------------------------------|
G|-------------------------------------------------------|
D|--------------3--------------8-5-0-3-5-3--5----3-----0-|  X2
A|------530-3-5---0-530-3-5----8-5-0-3-5-3--5-35-3-03--0-|
D|-0-0-------------------------8-5-0-3-5-3--5----3-----0-|

Verse:
e|-------------------------------------------------------|
B|-------------------------------------------------------|
G|-------------------------------------------------------|
D|-------------------------------------------------------|  X2
A|------------3-3----------------------------------------|
D|--0-0-3-0-0-----0-0-3-0-0-0356530----------------------|

e|-------------------------------------------------------|
B|-------------------------------------------------------|
G|-------------------------------------------------------|
D|-------------------------------------------------------|
A|------------3h5p3--------------------------------------|
D|--0-0-3-0-0-------0-0-3-0-0-0356530--------------------|

e|-------------------------------------------------------|
B|-------------------------------------------------------|
G|-------------------------------------------------------|
D|-------------------------------------------------------|
A|-----------5-------------------------------------------|
D|-0-0-3-0-0----0-0-3-0-0-0356530------------------------|


Pre-chorus
e|-------------------------------------------------------|
B|-------------------------------------------------------|
G|-------------------------------------------------------|
D|-0-0-3-0-0-0--0-3-0-0-0--0-3-0-0-0--0-3-5-3------------|
A|-0-0-3-0-0-0--0-3-0-0-0--0-3-0-0-0--0-3-5-3------------|
D|-0-0-3-0-0-0--0-3-0-0-0--0-3-0-0-0--0-3-5-3------------|
2X
e|-------------------------------------------------------|
B|-------------------------------------------------------|
G|-------------------------------------------------------|
D|-0-3-0-0-0--0-565--0-3-0-0-543-0-----------------------|
A|-0-3-0-0-0--0-565--0-3-0-0-543-0-----------------------|
D|-0-3-0-0-0--0-565--0-3-0-0-543-0-----------------------|


Chorus:
e|-------------------------------------------------------|
B|-------------------------------------------------------|
G|-------------------------------------------------------|
D|-7-77777--10-1010101010--5-55555--0-0000--10-----------|
A|-7-77777--10-1010101010--5-55555--0-0000--10-----------|
D|-7-77777--10-1010101010--5-55555--0-0000--10-----------|

e|-------------------------------------------------------|
B|-------------------------------------------------------|
G|--------------------------------------0----------------|
D|-7-77777--10-1010101010--5-555-53030--0----------------|
A|-7-77777--10-1010101010--5-555-53030--0----------------|
D|-7-77777--10-1010101010--5-555-53030-------------------|

e|---------------------------------------------------------------|
B|---------------------------------------------------------------|
G|---------------------------------------------------------------|
D|-88888888-33333333-1010101010101010-99999999-88888888-77777777-|
A|-88888888-33333333-1010101010101010-99999999-88888888-77777777-|
D|-88888888-33333333-1010101010101010-99999999-88888888-77777777-|


Intro riff repeated:
e|-------------------------------------------------------|
B|-------------------------------------------------------|
G|-------------------------------------------------------|
D|--------------3--------------8-5-0-3-5-3--5----3-----0-|
A|------530-3-5---0-530-3-5----8-5-0-3-5-3--5-35-3-03--0-|
D|-0-0-------------------------8-5-0-3-5-3--5----3-----0-|

Verse (all hail the queen):
e|-------------------------------------------------------|
B|-------------------------------------------------------|
G|-------------------------------------------------------|
D|-------------------------------------------------------|  X2
A|------------3-3----------------------------------------|
D|--0-0-3-0-0-----0-0-3-0-0-0356530----------------------|

e|-------------------------------------------------------|
B|-------------------------------------------------------|
G|-------------------------------------------------------|
D|-------------------------------------------------------|
A|------------3h5p3--------------------------------------|
D|--0-0-3-0-0-------0-0-3-0-0-0356530--------------------|

e|-------------------------------------------------------|
B|-------------------------------------------------------|
G|-------------------------------------------------------|
D|-------------------------------------------------------|
A|-------------------------------------------------------|
D|-0-0-3-0-0--0---0-0-3-0-0-0356530----------------------|

Pre-chorus and chorus are pretty much the same as the first time around, and I did not 
tab the solo or the end. Figure them out yourself! :}
comments
We did not receive enough feedback on this tab! Please rate:
print report bad tab
1 2 3 4 5
I want to post or [tab]
guest
You may want to rate the tab now too:
select rating
Please do not post tabs as comments. Select "correction" instead!