Oops, an error
Loading. Please wait.

Is That A Threat Or A Promise Bass Tab

251 views 1 this week
no commentswrite comment
1 2 3 4 5
please rate
add to favorites
launch autoscroll
font size
0
reset
guitar tuner
Autoscroll
slow
fast
+/-
esc
set tempo
stop
Help us to improve Ultimate-Guitar.com Take our survey!
×
Author
Tuning
D A D G B E
"IS THAT A THREAT OR A PROMISE?"
-MAYLENE AND THE SONS OF DISASTER

============================================================================

DROP D

Intro:
G|-----------------|
D|-----------------|
A|-----------------|
D|---3--5---3--5---| x4

Verse:
G|-----------------|
D|-----------------|
A|-----------------|
D|---3--5---3--5---| x4

"like the devil..."
G|--------------|
D|--------------|
A|--------------| 
D|---3-3--5-0---| x4

G|-------------------|
D|-------------------|
A|-------------3-5---|
D|---0-3-0-3-0-------|

Chorus:
G|-------------------|
D|-------------------|
A|-------------------|
D|---5--3--0-3-0-3---| x4


Interlude:
G|-----------------|
D|-----------------|
A|-----------------|
D|---3--5---3--5---| x4


G|-----------------------------------------------------------------------|
D|-----------------------------------------------------------------------|
A|-------------------------------------------------------3-3-3-3-3-3-3---|
D|---3-3--5-0----5--3--0-3-0----3-3--5-0----5--3--0-3-0------------------|

G|-----------------------------------------------|
D|-----------------------------------------------|
A|-----------------------------------------------|
D|---3-3--5-0-00000000000--5--3--0-3-0-0000000---| x2

-CHORUS-

Bridge:
G|------------------------------------|     G|-------------------|
D|------------------------------------|     D|-------------------|
A|---3--------------------------------|     A|---3~--------------|
D|------5---0-3-0-00-0-0-0-0-0-0------| x3  D|------5~---0-3-0---|


G|---------------------------|      G|-------------------------|
D|---------------------------|      D|-------------------------|
A|---------------------3-5---|      A|--------------33333333---|
D|---00--00--0--00--00-------| x3   D|---00--00--0-------------|

-CHORUS 8X-

End on:
G|--------|
D|--------|
A|--------|
D|---0~---|

Suggest correction
Give kudos to tab author, rate the tab!
1 2 3 4 5
comments
print report bad tab
guest
You may want to rate the tab now too:
select rating
Wanna post a correction for this tab? Suggest correction