Oops, an error
Loading. Please wait.

Lady At The Gate Bass Tab

version 1
version 1

Whole song

Interactive

810 views 1 this week
no commentswrite comment
1 2 3 4 5
please rate
add to favorites
launch autoscroll
font size
0
reset
guitar tuner
Autoscroll
slow
fast
+/-
esc
set tempo
stop
Help us to improve Ultimate-Guitar.com Take our survey!
×
Contributor
Tuning
D A D G B E
Hope you find this usefull
I put just the riffs not the time when it's played or the number of times played but 
easy to figure out just listen to it.

G----------------------|
D----------------------|
A----------------------|
D---000000030506050----|


G--------------------------------------------|
D------------------5-3-0--0-3-0--------------|
A------------------------3------0-3-0--------|
D--0000650-303530--------------------6-0-3---|

G-------------------------------------|
D-------------------------------------|
A-------------------------------------|
D----0~6------------0~6---------------|


G----------------------------------------------------|
D----------------------------------------------------|
A------0-0------------------0-0---------5------------|
D--0-0-----3-3--5-5-3--0-0-----3-3-5-5---------------|


G-------------------------------------------------------------------------------|
D-------------------------------------------------------------------------------|
A---------------------5------------3------0-03030-3-5-6-5-3--------------------|
D--6-5-3-0---0-0-3-5---6-5-3-0-3-5--5-3-0-------------------6-5-3-0-------------|
End on an open note
comments
We did not receive enough feedback on this tab! Please rate:
print report bad tab
1 2 3 4 5
I want to post or [tab]
guest
You may want to rate the tab now too:
select rating
Please do not post tabs as comments. Select "correction" instead!