Oops, an error
Loading. Please wait.

Lady At The Gate Tab

version 1
version 1

Whole song

Interactive

1,503 views 1 this week
3 commentsread comments
1 2 3 4 5
worth learning
x 3
add to favorites
launch autoscroll
font size
0
reset
how to read this tab
guitar tuner
Autoscroll
slow
fast
+/-
esc
set tempo
stop
Help us to improve Ultimate-Guitar.com Take our survey!
×
Author
Difficulty
intermediate
-------------------------------------------------------------------------------
        Lady At the Gate - Maylene and the Sons of Disaster
-------------------------------------------------------------------------------
Tabbed by: mORGASM Dawson
Email:donttouchmethere15@yahoo.com

Tuning:
    INTRO
e|---------------------------------------------------------------------------|
B|---------------------------------------------------------------------------|
G|------3p0------------------------------------------------------------------|
D|----------3p0--0h3p0-------------------------------------------------------|
A|----------------------4-3-0-0h3p0-2----------------------------------------|
D|--------------------------------------5-3--0-------------------------------|

e|---------------------------------------------------------------------------|
B|---------------------------------------------------------------------------|
G|---------------------------------------------------------------------------|
D|----------------------------------------------3x---------------------------|
A|---0--00000--0000--3-0--5-0--6-0--5-0--------------------------------------|
D|---0--00000--0000--3p0--5p0--6p0--5p0--------------------------------------|

e|---------------------------------------------------------------------------|
B|---------------------------------------------------------------------------|
G|------3p0------------------------------------------------------------------|
D|----------3p0--0h3p0-------------------------------------------------------|
A|----------------------4-2-0-0h2p0-2---------let ring-----------------------|
D|--------------------------------------5-3--0-------------------------------|

e|---------------------------------------------------------------------------|
B|---------------------------------------------------------------------------|
G|------------------------------3p0------------------------------------------|
D|----------------------------------3p0------3-------------------------------|
A|--0-0-0-0---6-5---3---353-0------------3h5---5----0h30h3--------*----------|
D|--0-0-0-0---6-5-0-3-0-353-0---------------------------------5-0-3----------|

e|---------------------------------|----------------------------|---|--------|
B|---------------------------------|----------------------------|---|--------|
G|---------------------------------|----------------------------|---|--------|
D|---------------------------------|----------------------------|-*-|--*-----|
A|---0-let-ring---6------4x--------|---0-0--8-0-8-0-0--3-33-5-5-|-3-|--5-----|
D|---0-----------/6----------------|---0-0--8-0-8-0-0--3-33-5-5-|---|--------|
                                       . .    .   . .
e|---------------------------------------------------------------------------|
B|---------------------------------------------------------------------------|
G|---------------------------------------------------------------------------|
D|---------------------------------------------------------------------------|
A|----000---0-5-3--5-3-------3-----0--0h3p0h3p000-3-5-6-5-3----6-5-3-0-------|
D|----000----------5-3-0-3-5---5-3-0---------------------------6-5-3-0-------|
                       .


well there it is....i didnt spend much time on it cause im supposed to be grounded from 
computer right now..lol

thats pretty much it...if you cant figure it out by listening to the song...then you 
deserve to play it :)

| /  slide up
|   slide down
| h  hammer-on
| p  pull-off
| ~  vibrato
| +  harmonic
| x  Mute note
===============================================================================
Suggest correction
Give kudos to tab author, rate the tab!
1 2 3 4 5
comments
print report bad tab
3 comments total.
0 reply
taylort36 21 wrote on June 3 2006, 11:44 pm

This isnt even close.

0 reply
nilnoc23 10 wrote on June 12 2006, 03:03 pm

wow this is horrible
i don't even think one note in here is right

0 reply
taylort36 21 wrote on August 19 2006, 10:55 pm

(thats pretty much it...if you cant figure it out by listening to the song...then you
deserve to play it)

haha then you dont deserve to play it.

guest
You may want to rate the tab now too:
select rating
Wanna post a correction for this tab? Suggest correction