Oops, an error
Loading. Please wait.

Last Train Coming Tab

542 views 1 this week
no commentswrite comment
1 2 3 4 5
please rate
add to favorites
launch autoscroll
font size
0
reset
how to read this tab
guitar tuner
Autoscroll
slow
fast
+/-
esc
set tempo
stop
Help us to improve Ultimate-Guitar.com Take our survey!
×
Author
Difficulty
Tuning
millarso 2,871
intermediate
D A D G B E
-----------------------------------------------------------------
Last Train Coming - Maylene & The Sons of Disaster
-----------------------------------------------------------------
Tabbed by: Jake Miller (millarso)
Email: millarso2.0@gmail.com
Tuning: Drop D

Section 1
Guitar 1
e|-----------------------------------------------------|
B|-----------------------------------------------------|
G|-12-10--7----5-5s7-7--12-10--7--12-12-12-12s10-10-10-|
D|-12-10--7--0-5-5s7-7--12-10--7--12-12-12-12s10-10-10-|
A|-10--8--5--0-3-3s5-5--10--8--5--10-10-10-10--8--8--8-|
D|-----------0-----------------------------------------|

e|---------------------------------------------------|
B|---------------------------------13-13-13-13s15-15-|
G|-12-10--7----5-5s7-7---12-10--7--12-12-12-12s14-14-|
D|-12-10--7--0-5-5s7-7---12-10--7--10-10-10-10s12-12-|
A|-10--8--5--0-3-3s5-5---10--8--5--------------------|
D|-----------0---------------------------------------|

Guitar 2
e|------------------------------------------------|
B|------------------------------------------------|
G|--5---------------------5--3--------------------|
D|--5--3--0--0-3-3-5-3-0--5--3--0-----------------|
A|--3--3--0--0-3-3-5-3-0--3--3--0--/5-3---3-------|
D|-----3--0--0-3-3-5-3-0--------0-------5---5-3-0-|

e|-------------------------------------------|
B|-------------------------------------------|
G|--5---------------------5--3-----5-5-5s7-7-|
D|--5--3--0--0-3-3-5-3-0--5--3--0--5-5-5s7-7-|
A|--3--3--0--0-3-3-5-3-0--3--3--0--3-3-3s5-5-|
D|-----3--0--0-3-3-5-3-0--------0------------|

Section 2
All Guitars
e|-------------------------------------------------------|
B|-------------------------------------------------------|
G|-------------------------------------------------------|
D|-------3--------------------------3---------/5-3---3---|
A|---3-5---5-3-5---3-3----------3-5---5-3-5--------5---5-|
D|-0-------------0-----5-3-0--0-------------0------------|

e|-----------------------------------------------------|
B|-----------------------------------------------------|
G|-----------------------------------------------------|
D|-------3--------------------------3---------/5-3-----|
A|---3-5---5-3-5---3-3----------3-5---5-3-5--------5-3-|
D|-0-------------0-----5-3-0--0-------------0----------|

e|-------------------------------|
B|-------------------------------|
G|-------------------------------|
D|-5--5-5-5-5-x-x-5--5-5-5-5-3-3-|
A|-5--5-5-5-5-x-x-5--5-5-5-5-3-3-|
D|-5--5-5-5-5-x-x-5--5-5-5-5-3-3-|

e|---------------------------------------|
B|---------------------12b13131313r12-10-|
G|---------------------12b13131313r12-10-|
D|-0-------3-----------------------------|x2
A|-0---3h5---5p3p0-----------------------|
D|-0-0-------------3-0-------------------|

e|---------------------------------|
B|---------------------------------|
G|---------------------------------|
D|-5--5-5-5-5-x-x-5--5-5-----------|
A|-5--5-5-5-5-x-x-5--5-5-----------|
D|-5--5-5-5-5-x-x-5--5-5-3-6-5-3-0-|

Section 1(x2)

Section 3
e|--------------------------------------------------------------|
B|--------------------------------------------------------------|
G|--------------------------------------------------------------|
D|-------------------3p2h3---2p0h2------------------------------|x2
A|-------3---5p3h5-------------------5p3h5-(-----3)-------------|
D|-3-4-5---0-------0-------0-------0-------(3-4-5-)-(last-time)-|

Section 4
e|-----------------------------------------------------------------|
B|-----------------------------------------------------------------|
G|-----------------------------------------------------------------|
D|-------------------------------------------------------------3-0-|
A|--------------------------------3--------------------------------|
D|-0-0-5b6-0-5b-0--0-5b-0-5b-0-3-5--0-0-5b-0-5b-0--0-5b-0-5b-0-----|
                               . .

e|----------------------------------------------------------------------|
B|----------------------------------------------------------------------|
G|----------------------------------------------------------------------|
D|-------------------------------------------------------3-5-5brb-3-----|
A|--------------------------------3------------------3-5------------5-3-|
D|-0-0-5b6-0-5b-0--0-5b-0-5b-0-3-5--0-0-5b-0-5b-0--0--------------------|
                               . .

Guitar 1
e|-----------------------------------------------------|
B|-----------------------------------------------------|
G|-------------------------------------7------7------7-|
D|-5--5-5-5-5-x-x-5--5-5-5-5-3--0--0-3-7--0-3-7--0-3-7-|
A|-5--5-5-5-5-x-x-5--5-5-5-5-3--0--0-3-5--0-3-5--0-3-5-|
D|-5--5-5-5-5-x-x-5--5-5-5-5-3--0--0-3----0-3----0-3---|

Guitar 2
e|-----------------------------------------------------|
B|-----------------------------------------------------|
G|-----------------------------------------------------|
D|-5--5-5-5-5-x-x-5--5-5-5-5-3--0--0-3-0--0-3-0--0-3-0-|
A|-5--5-5-5-5-x-x-5--5-5-5-5-3--0--0-3-0--0-3-0--0-3-0-|
D|-5--5-5-5-5-x-x-5--5-5-5-5-3--0--0-3-0--0-3-0--0-3-0-|

All Guitars
e|---------------------------------|
B|---------------------------------|
G|---------------------------------|
D|-5--5-5-5-5-x-x-5--5-5-3-6-5-3-0-|
A|-5--5-5-5-5-x-x-5--5-5-3-6-5-3-0-|
D|-5--5-5-5-5-x-x-5--5-5-3-6-5-3-0-|

Section 1 (x2)
Section 3 (x1)

Section 5 (similar to Section 3)
e|-----------------------------------------|
B|-----------------------------------------|
G|-----------2p0h2-------------------------|
D|---3p2h3-----------5p3h5---3p2h3---------|x2
A|---------------------------------------3-|
D|-0-------0-------0-------0-------3-4-5---|

e|-----------------------------------------|
B|-----------------------------------------|
G|-----------------------------------------|
D|-----------3p2h3---2p0h2-----------------|x2
A|---5p3h5-------------------5p3h5-------3-|
D|-0-------0-------0-------0-------3-4-5---|

That's all for this one.
Please rate & comment.
Thanks,
millarso
Suggest correction new What's this?
You can suggest a correction to this tab. Community and Mods will review your correction and vote to approve or reject it.
comments
We did not receive enough feedback on this tab! Please rate:
print report bad tab
1 2 3 4 5
guest
You may want to rate the tab now too:
select rating
Please do not post tabs as comments. Select "correction" instead!