Oops, an error
Loading. Please wait.

Listen Close Tab

version 1
version 1

Intro

Whole song

15,406 views 9 this week
5 commentsread comments
1 2 3 4 5
excellent!
x 10
add to favorites
launch autoscroll
font size
0
reset
how to read this tab
guitar tuner
Autoscroll
slow
fast
+/-
esc
set tempo
stop
Help us to improve Ultimate-Guitar.com Take our survey!
×
Here is the intro to a great song off their new Album "III". It's one of the more softer
but amazing none-the-less.

UPDATE: I had the pleasure of talking to Jake Duncan, the guitarist for Maylene. I asked
about this song and he was kind enough to email me a tab. Below is what he sent me.
the way I originally played it is still correct, but it's easier for me to play, so maybe
you all can benefit from it. My original tab will be below the one Jake sent me.

Enjoy!

Key:
h = Hammer on
p = Pull off
~ = Let note ring

e|---------------------------------------------------------------|
B|---------------------------------------------------------------|
G|--10~~~~10-5~~~~---5~~~~~5~~~~---------------------------------|
D|--10h12-10-5h7p5-3-5~~~~~5h7p5-3-0~~0-----2-----3~~--5---7-5-3-|
A|-------------------------------------3-5---5-3----3---3--------|
D|---------------------------------------------------------------|


My original:

Key:
h = Hammer on
p = Pull off
~ = Let note ring
. = Palm mute

Enjoy
-Seth

e|------------------------------------------------------|
B|--6----6----------------------------------------------|
G|--5h7--5-0h2p0---0~--0h2p0----------------------2p0---|
D|--------------3-----------3-0-----2-0---3---5-------3-| x4
A|------------------------------3-5-----3---3---3-------|
D|------------------------------------------------------|
                                . .   . .

Working on the rest.
Suggest correction
comments
print report bad tab
5 comments total. Showing first comments. show 1 bad comment
0 reply
forsaknazrael 265 wrote on September 23 2009, 11:56 pm

i play a few thing a bit differently, mostly for ease, but it looks good! i'm awaiting any updates, hoping to learn some cool phrases from this song.

0 reply
theFallofLirby 480 wrote on October 3 2009, 03:31 am

nice!

guest
You may want to rate the tab now too:
select rating
Wanna post a correction for this tab? Suggest correction