Oops, an error
Loading. Please wait.

Listen Close Tab

version 1
version 1

Whole song

13,136 views 18 this week
no commentswrite comment
1 2 3 4 5
x 4
add to favorites
launch autoscroll
font size
0
reset
how to read this tab
guitar tuner
Autoscroll
slow
fast
+/-
esc
set tempo
stop
Author
Tuning
D A D G B E
(drop d)

E|-------------------------------------------------------------------------|
B|-------------------------------------------------------------------------|
G|--10----10-5-------5~~~~~5~~~~-------------------------------------------|
D|--10h12-10-5h7p5-3-5~~~~~5h7p5-3-0~~0-----2-----3~~--5---7-5-3-----------|
A|-------------------------------------3-5---5-3----3---3------------------|
D|-------------------------------------------------------------------------|

[Verse]
E|-------------------------------------------------------------------------|
B|-------------------------------------------------------------------------|
G|-------------------------------------------------------------------------|
D|-33-----5-5----777-7-----------------------------------------------------|
A|-11/3/5p33/5/7/555-5h8p5-------------------------------------------------|
D|-------------------------------------------------------------------------|

[Chorus]
E|-------------------------------------------------------------------------|
B|-------15----13----------------------------------------------------------|
G|--------------------14-----12--------------------------------------------|
D|-1212-----12-----12-----12----12-15-14-15-14-12-/10/7/5/3/5bfp3----------|
A|-------------------------------------------------------------------------|
D|-------------------------------------------------------------------------|

[solo variation of this riff]
E|-------------------------------------------------------------------------|
B|-------------------------------------------------------------------------|
G|----------14----14-15----12----15-----14---------------------------------|
D|-12121212----12---12---12----------12---12-------------------------------|
A|-------------------------------------------------------------------------|
D|-------------------------------------------------------------------------|

[then the talk box part]
E|---------------------------------------------------------------------------|
B|-----------------------------------------5---------------------------------|
G|--------------------------------------3-----3------------------------------|
D|-----------3--------------------3-5-3--------------------------------------|
A|-0-5-3-5-3---5-3-5------0-5-3-5--------------------------------------------|
D|---------------------------------------------------------------------------|

************************************

| ~  Vibrato
| h  Hammer-on
| p  Pull-off
| /  Slide up

************************************
Suggest correction
comments
print report bad tab
guest
You may want to rate the tab now too:
select rating
Wanna post a correction for this tab? Suggest correction