Oops, an error
Loading. Please wait.

Listen Close Tab

version 2
version 2

Whole song

9,365 views 3 this week
no commentswrite comment
1 2 3 4 5
accurate
x 5
add to favorites
launch autoscroll
font size
0
reset
how to read this tab
guitar tuner
Autoscroll
slow
fast
+/-
esc
set tempo
stop
Help us to improve Ultimate-Guitar.com Take our survey!
×
Tuning
D A D G B E
Maylene And The Sons Of Disaster
Listen Close
III

My First tab


Intro x4
e/-------------------------------------------------------------------------|
b/----6---6----------------------------------------------------------------|
G/----5h7-5--5--------5----------------------------------------------------|
D/-----------5h7p5----5--5h7--5--------------2-------3-----5-----5h7--5--3-|
A/------------------8------------8--5---3--5---5--3-----3-----3------------|
D/-------------------------------------------------------------------------|
                                        .  .   .  .     .     .

Verse x4
e/---------------------------------------------------------|
b/---------------------------------------------------------|
G/------------------3--5-----------------------------------|
D/-3-------3-----5--------5---7---------7--7--------7------|
A/-1--3/5-----5--3------------5---8--8--5--5--8--8--5------|
D/---------------------------------------------------------|

Chorus x4
e/-------------------------------------------------------|
b/--------15------13-------------------------------------|
G/------------------------14------12------14--12---------|
D/-12-12------12------12------12------12----------15-----|
A/-------------------------------------------------------|
D/-------------------------------------------------------|
    .  .       .       .       .       .

e/----------------------------------------|
b/-6----6---------------------------------|
G/-5h7--5--5---------5--------------------|
D/---------5h7p5-----5--5h7--5------------|
A/----------------8-------------8--5------|
D/----------------------------------------|
                   (        )

               in the (), the 3rd time play
               D/-5-b--r
               A/-------|
               D/-------|


              Verse x4
              Chorus x4

Fill
e/----------------------------------------------------------|
b/----------------------------------------------------------|
G/-10--14--10--12--14--10--15--10--14--10--12--14--10-10----|
D/----------------------------------------------------------|
A/----------------------------------------------------------|
D/----------------------------------------------------------|

e/-----------------------------------------10--13--10-------|
b/----------------------------------------------------------|
G/-10--14--10--12--14--10--15--10--14--10-------------------|
D/----------------------------------------------------------|
A/----------------------------------------------------------|
D/----------------------------------------------------------|

e/----------------------------------------------------------|
b/----------------------------------------------------------|
G/-10--14--10--12--14--10--15--10--14--10--12--14--10-10----|
D/----------------------------------------------------------|
A/----------------------------------------------------------|
D/----------------------------------------------------------|

e/----------------------------------------------------------|
b/------------------------------------------14----16----18--|
G/-10--14--10--12--14--10--15--10--14--10---17b---19b---21b-|
D/----------------------------------------------------------|
A/----------------------------------------------------------|
D/----------------------------------------------------------|

Bridge x2
e/----------------------------------------------------------|
b/----------------------------------------------------------|
G/----------------------------------------------------------|
D/-3p0-3p0--0--3p0-3p0--0--3p0-3p0--0--6--5--3p0--3--0------|
A/-3p0-3p0--0--3p0-3p0--0--3p0-3p0--0--6--5--3p0--3--0------|
D/-3p0-3p0--0--3p0-3p0--0--3p0-3p0--0--6--5--3p0--3--0------|

Chorus x4

Outro
e/-----------------         ------|
b/-----------------         ------|
G/-5---------------    x3   ------|
D/-5--5h7--5-------         --0---|
A/------------8--5-         --0---|
D/-----------------         --0---|


h = hammer-on
p = pull-off
\ = slide
b = bend
r = release
. = palm mute
comments
print report bad tab
I want to post or [tab]
guest
You may want to rate the tab now too:
select rating
Please do not post tabs as comments. Select "correction" instead!