Oops, an error
Loading. Please wait.

Memories Of The Grove Bass Tab

version 1
version 1

Whole song

Interactive

1,474 views 1 this week
no commentswrite comment
1 2 3 4 5
please rate
add to favorites
launch autoscroll
font size
0
reset
guitar tuner
Autoscroll
slow
fast
+/-
esc
set tempo
stop
Help us to improve Ultimate-Guitar.com Take our survey!
×
Author
Difficulty
Drop D tuning

0:05-0:33
G|------|----------|
D|------|----------|
A|------|----------|
D|--3-5-|-00000000-|

0:33-0:46
              x3
G|-------------|---------|
D|-------------|---------|
A|-5-----------|---------|
D|---0-5-0-3-5-|-3h0-5h0-|

0:47-0:58 
        x3
G|---------|-----------|
D|---------|-----------| 
A|---------|--3-1--3-1-|
D|-3-5-5-5-|-----------|

        x3
G|---------|--------------------------|
D|---------|--------------------------| 
A|---------|--------------------------|
D|-3-5-5-5-|--7-5-0-7-5-0-5-3-0-5-3-0-|

1:00-1:16
rest

1:16-1:27
G|--------------------------------|    |-------------------------|
D|--------------------------------|    |-------------------------|
A|-------------------------8-8-5--|    |-------------------------|
D|-0-0-0-0-0-0-0-0-3-5-0-0--------|    |-7-5-0-7-5-0-5-3-0-5-3-0-|

Solo
1:30-1:50
         x3
G|---------|-----------|
D|---------|-----------| 
A|---------|--3-1--3-1-| x3(whole section)
D|-3-5-5-5-|-----------| 

1:50-1:52
G|----------|
D|----------|
A|----------|
D|-77777777-|

2:05-2:16, Again at 3:37-4:10
G|-----|  
D|-----|
A|-----|  
D|-0-0-|

2:19-2:30
G|---------|
D|---------|
A|---------|
D|-6~-5~-3~|x4

2:32-2:57
G|----------------------------------------------|
D|----------------------------------------------|
A|----------------------------------------------|
D|-0-0-0-0-0-3-0-0-0-0-0-0-0-66-55-33-0-3-0-3-0-|

3:00-3:13
G|---------------------------------------|
D|---------------------------------------|
A|---------------------------------------|
D|--3h0-0--3h0-0--3h0-0--3h0-0--6-6-6-5--|

3:13-3:40
Rest

3:40-4:00
G|-----|  
D|-----|
A|-----|  
D|-0-0-|

4:01
G|----------------------|
D|----------------------|
A|-------------------5--|  
D|-0-0-33-55-6-5-3-0----|


Tabbed by John VandenBroek
Suggest correction
What's this?
You can suggest a correction to this tab. Community and Mods will review your correction and vote to approve or reject it.
comments
We did not receive enough feedback on this tab! Please rate:
print report bad tab
1 2 3 4 5
guest
You may want to rate the tab now too:
select rating
Please do not post tabs as comments. Select "correction" instead!