Oops, an error
Loading. Please wait.

Memories Of The Grove Tab

version 1
version 1

Intro

Whole song

Interactive

2,039 views 1 this week
1 commentread comment
1 2 3 4 5
please rate
add to favorites
launch autoscroll
font size
0
reset
how to read this tab
guitar tuner
Tab Pro tools
  • play this tab
  • loop segment
  • change instrument
  • show fretboard
  • metronome
×
Best way to learn
"Memories Of The Grove"
Autoscroll
slow
fast
+/-
esc
set tempo
stop
Contributor
Difficulty
Tuning
intermediate
D A D G B E
intro
mark V

---------------------------------------------------------------|
---------------------------------------------------------------|
--10-12--------------------------------------------------------|
--------12----17-15-15--17p15--------15-17p15--15-17p15--15----|
-----------------------------17p15-17--------17--------17------|
---------------------------------------------------------------|

-----------------------------------------------------------------------------------|
-----------------------------------------------------------------------------------|
--17p15-17p15-17p15-19p15-19p15-19-17p15-------------------------------------------|
-----------------------------------------17p15----------15-----15------17----------|
-----------------------------------------------17p15-17----17-----17------17-------|
-----------------------------------------------------------------------------------|
comments
We did not receive enough feedback on this tab! Please rate:
print report bad tab
1 2 3 4 5
1 comment total.
0 reply
IbanezRGX wrote on January 3 2010, 06:37 pm

uhh
are you listening to the wrong song bro?

I want to post or [tab]
guest
You may want to rate the tab now too:
select rating
Please do not post tabs as comments. Select "correction" instead!