Oops, an error
Loading. Please wait.

Memories Of The Grove Tab

version 1
version 1

Whole song

Interactive

4,086 views 1 this week
4 commentsread comments
1 2 3 4 5
x 6
add to favorites
launch autoscroll
font size
0
reset
how to read this tab
guitar tuner
Autoscroll
slow
fast
+/-
esc
set tempo
stop
Help us to improve Ultimate-Guitar.com Take our survey!
×
Author
Difficulty
Tuning
novice
D A D G B E
----------------------------------------------------------------------------
            Memories Of The Grove - Maylene And The Sons Of Disaster
----------------------------------------------------------------------------
Tabbed by: rockonmetal83
Email:therabbit99999@yahoo.com

Tuning: Drop D ( D A D G B E )

Intro / Verse
0:02-0:33
e|----------|-----|---------|
B|----------|-----|---------|
G|----------|-----|---------|
D|----------|-3-5-|-3-5-3-5-|
A|----------|-3-5-|-3-5-3-5-|
D|-12-0-0-0-|-3-5-|-3-5-3-5-|
PM

Verse Part Zwei
0:33-0:46
e|-------------|-------|
B|-------------|-------|
G|-------------|-------|
D|-7-----------|-------|
A|-5-0-5-0-3-5-|-3-0-0-|
D|---0-5-0-3-5-|-3-0-0-|
PM   .   .

Riff 3???
0:47-0:58,1:27-1:47
e|----------------|
B|----------------|
G|----------------|
D|-3-5-5-5--------| 
A|-3-5-5-5-//////-| 
D|-3-5-5-5-//////-|     

Ummm.
1:00-1:27
e|--------------------------------|    |-------------------------|
B|--------------------------------|    |-------------------------|
G|--------------------------------|    |-------------------------|
D|--------------------------------|    |-------------------------|
A|-0-0---------------------8-8-5--|    |-------------------------|
D|-0-0-0-0-0-0-0-0-3-5-0-0--------|    |-7-5-0-7-5-0-5-3-0-5-3-0-|
PM     . . . . . .     . .

1:14-1:27
e|--------------------------------|    |-------------------------|
B|--------------------------------|    |-------------------------|
G|------------------------10-10-7-|    |-------------------------|
D|--------------------------------|    |-------------------------|
A|-0-0----------------------------|    |-------------------------|
D|-0-0-0-0-0-0-0-0-3-5-0-0--------|    |-7-5-0-7-5-0-5-3-0-5-3-0-|
PM     . . . . . .     . .


Mini Solo
1:27-1:41
e|---------------------------------------------------------------------|
B|---------------------------------------------------------------------|
G|-----------------15------------------------------17-15-17-15-17-15---|
D|-15-17-17-17-17~----17-17-17-17~--15-17-17-17-17-------------------17|
A|---------------------------------------------------------------------|
D|---------------------------------------------------------------------|

e|-------------------------------------------------------------|
B|-------------------------------------------------18--18--18~-|
G|-----------------15--------------------------------17--17----|
D|-15-17-17-17-17~----17-17-17-17~--15-17-17-17-17-------------|
A|-------------------------------------------------------------|
D|-------------------------------------------------------------|

Uhh.
1:47-1:50?
e|----------|
B|----------|
G|----------|
D|-7777777/-|
A|-7777777/-|
D|-7777777/-|

e|----------|
B|----------|
G|-7777777/-|
D|-xxxxxxx/-|
A|-5555555/-|
D|----------|

Awesomest riff(s) on the CD.
2:03-2:16, Again at 3:37-4:10
e|---------------------------|   |---------------------|
B|---------------------------|   |---------------------|
G|---------------------------|   |---------------------|
D|-0-0-----------------------|   |-0-0-----------------|
A|-0-0-----3-----------------|   |-0-0----3---------5~-|
D|-0-0-3-5--6-5-3-0-3-0-5-3~-|   |-0-0-3-5-6-5-3-0-3---|

Bridgey?
2:16-2:30
e|---------|
B|---------|
G|---------|
D|-6~-5~-3~|
A|-6~-5~-3~|
D|-6~-5~-3~|

e|----------|
B|----------|
G|-8~-7~-5~-|
D|-x--x--x--|
A|-6~-5~-3~-|
D|----------|

Stupid song structure'd!
2:30-2:57
e|----------------------------------------------|
B|----------------------------------------------|
G|----------------------------------------------|
D|-0---------3-0-------------66-55-33-0-3-0-3-0-|
A|-0---------3-0-------------66-55-33-0-3-0-3-0-|
D|-0-0-0-0-0-3-0-0-0-0-0-0-0-66-55-33-0-3-0-3-0-|
PM   . . . .     . . . . . .

During Last Solo (Sorry No Solo)
2:57-3:10
e|---------------------------|
B|---------------------------|
G|---------------------------|
D|-3-----3-----3-----3--666~-|
A|-3-----3-----3-----3--666~-|
D|-3-0-0-3-0-0-3-0-0-3--666~-|
P.M  . .   . .   . .

| /  slide up
| \  slide down
| h  hammer-on
| p  pull-off
| ~  vibrato
| +  harmonic
| x  Mute note
============================================================================
Suggest correction
comments
print report bad tab
4 comments total. Showing first comments.
0 reply
Metagloria 10 Apr 02, 2007 12:51 PM

One of the worst tabs I've ever seen. This is a VERY simple song, and very basic parts are way off.

0 reply
fearthekill 10 May 04, 2007 10:40 PM

hey, **** you metalgloria

0 reply
fearthekill 10 May 04, 2007 10:40 PM

fcuk* i still hate u

guest
You may want to rate the tab now too:
select rating
Wanna post a correction for this tab? Suggest correction