Oops, an error
Loading. Please wait.

Memories Of The Grove Tab

version 2
version 2

Intro

Whole song

Interactive

11,498 views 3 this week
10 commentsread comments
1 2 3 4 5
accurate
x 9
add to favorites
launch autoscroll
font size
0
reset
how to read this tab
guitar tuner
Tab Pro tools
  • play this tab
  • loop segment
  • change instrument
  • show fretboard
  • metronome
Autoscroll
slow
fast
+/-
esc
set tempo
stop
Contributor
Difficulty
Tuning
novice
D A D G B E
-------------------------------------------------------------------------------
                Memories Of The Grove - Maylene and the Sons of Disaster
-------------------------------------------------------------------------------
Tabbed by: CJ Stevens
Email: frozenpxl@yahoo.com
Myspace: myspace.com/cjstevens
Virb: virb.com/cjstevens

Im pretty sure this is almost 100% correct. Im also pretty sure that you'll 
eventually love me for these tabs. 

Tuning: Drop D = (High to low) DADGBE

PM or . = Palm Mute
/ = slide up
\ = slide down
~ = hold out

(Intro Guitar 1)
e|-----------------------------------------------|
B|-----------------------------------------------|
G|-----------------------------------------------|
D|-------------------------------------------8-10|
A|-------------------------------------------8-10|
D|-12-0-0-12-0-0-12-0-0-12-0-0-12-0-0-12-0-0-8-10|

(Guitar 2 comes in 3rd measure (when the solo starts), and plays with guitar 1)

(Intro cont. Guitars 1, 2)
e|-----------------------------------------------|
B|-----------------------------------------------|
G|-----------------------------------------------|
D|-------------------------------------------8-10|
A|-------------------------------------------8-10|
D|-12-0-0-12-0-0-12-0-0-12-0-0-12-0-0-12-0-0-8-10|

e|------------------------------------|
B|------------------------------------|
G|------------------------------------|
D|-------------------------88-55-88-55|
A|-------------------------88-55-88-55|
D|-12-0-0-12-0-0-12-0-0-12-88-55-88-55|

(Guitars 1 and 2 repeat the 'Intro cont.' riff under the solo.

(Solo Guitar 3)
e|-------------------------------------------------------------|
B|-------------------------------------------------------------|
G|--------12-10~~-12-10-------------------------10/12-10----10-|
D|-10/12~~--------------12-12-10-------------10----------12----|
A|-------------------------------12-12-10-12-------------------|
D|-------------------------------------------------------------|

e|--------------------------------------------------------------------------------------|
B|-13-------13-------15-------15--------------------------------------------------------|
G|----14-14----14-14----14-14---14-14-12-10--------------------10-----10----12----------|
D|------------------------------------------12-12-10--------------12~----12----10-10b12-|
A|---------------------------------------------------12-12-10---------------------------|
D|--------------------------------------------------------------------------------------|

(at this point, all three guitars are playing the intro riff)

(Intro cont. Guitars 1, 2, 3)
e|-----------------------------------------------|
B|-----------------------------------------------|
G|-----------------------------------------------|
D|-------------------------------------------8-10|
A|-------------------------------------------8-10|
D|-12-0-0-12-0-0-12-0-0-12-0-0-12-0-0-12-0-0-8-10|

e|------------------------------------|
B|------------------------------------|
G|------------------------------------|
D|-------------------------88-55-88-55| 2x
A|-------------------------88-55-88-55|
D|-12-0-0-12-0-0-12-0-0-12-88-55-88-55|

(Verse 1 Guitars 1, 2, 3)
e|-----------------------------------------------|
B|-----------------------------------------------|
G|-----------------------------------------------|
D|-12-5-3-5~--12--5--3--5~-12-5-3-5~-3-0~-3-0~---| 2x
A|-12-5-3-5~--12--5--3--5~-12-5-3-5~-3-0~-3-0~---|
D|-12-5-3-5~-012-05-03-05~-12-5-3-5~-3-0~-3-0~---|

(verse 1 cont. Guitars 1, 2, 3)
e|--------------------------------------------------------|
B|--------------------------------------------------------|
G|--------------------------------------------------------|
D|--------------------------------------------------------| 2x 
A|--------------------------------------------------------|    
D|-3-0-5-5~/12\-3-0-5-5~/12\-3-0-5-5~/12\-(10-8~-0-10-8~)-|

**skip part in () the second time and play verse 1 outro**

(verse 1 outro Guitars 1, 2, 3) into (verse 2 Guitar 1)       
e|-----------------------------|--------------------------------|
B|-----------------------------|--------------------------------|
G|-----------------------------|--------------------------------|
D|-----------------------------|-0-------------------3-3--------| 3x
A|-----------------------------|-0-----------------------5~-----|
D|-0-12-10-0-10-8-0-8-7-0-7-5-0|-0-00-00-00-0-3-5-00------------|
                                                    .. .. .. .     ..

**G1 plays verse 2 riff 3 times, then plays the following.**

(verse 2 cont. Guitar 1)
e|-----------------------------------------|
B|-----------------------------------------|
G|-----------------------------------------|
D|-0---------------------------------------| 
A|-0---------------------------------------|
D|-0-00-00-00-0-12-10-0-10-8-0-8-7-0-7-5-0-|
     .. .. ..

(verse 2 cont. Guitar 1, 2)
e|--------------------------------|     
B|--------------------------------|
G|--------------------------------|
D|-0-------------------3-3--------| 3x
A|-0-----------------------5~-----|
D|-0-00-00-00-0-3-5-00------------|
     .. .. .. .     ..

(verse 2 cont. Guitar 3)
e|--------------------------------|     
B|--------------------------------|
G|--------------------------------|
D|-0-------------------15-15------| 3x
A|-0-------------------------17---|
D|-0-00-00-00-0-3-5-00------------|
     .. .. .. .     ..

(verse 2 outro Guitars 1, 2, 3
e|-------------------------------|
B|-------------------------------------------|
G|-------------------------------------------|
D|-0-----------------------------------------| 
A|-0-----------------------------------------|
D|-0-00-00-00-0-12-10-0-10-8-0-8-7-0-7-5-0-0-|
     .. .. .. .    

(Pre-vocal Guitars 1, 2) (under Guitar 3)
e|--------------------------------------------------------|
B|--------------------------------------------------------|
G|--------------------------------------------------------|
D|-3-0-5-5------3-0-5-5------3-0-5-5--------10-8----10-8--| 3x 
A|-3-0-5-5------3-0-5-5------3-0-5-5--------10-8----10-8--|    
D|-3-0-5-5~/12\-3-0-5-5~/12\-3-0-5-5~/12\-0-10-8~-0-10-8~-|

(Pre-vocal Guitar 3)
e|-------------------------------------------------------------|
B|-------------------------------------------------------------|
G|-------12-12~-15-12-12---12~--------12-12~-15-17b17b17-15----|
D|-15-12-----------------15-----15-12-----------------------17-| 
A|-------------------------------------------------------------|
D|-------------------------------------------------------------|

e|--------------------------------------------13-15b15b15b-----|
B|-------------------------------------------------------------|
G|-------12-12~-15-12-------12~-------12-12~-------------------|
D|-15-12--------------15-12-----15-12--------------------------| 
A|-------------------------------------------------------------|
D|-------------------------------------------------------------|

e|--------------------------------------------------------|
B|--------------------------------------------------------|
G|--------------------------------------------------------|
D|-3-0-5-5------3-0-5-5------3-0-5-5--------10-8----10-8--| 
A|-3-0-5-5------3-0-5-5------3-0-5-5--------10-8----10-8--|    
D|-3-0-5-5~/12\-3-0-5-5~/12\-3-0-5-5~/12\-0-10-8~-0-10-8~-|

(Pre-Vocal Guitar 1,2,3)
e|----------------------------------------|
B|----------------------------------------|
G|-14-14-14-14-14-14-14-14-14-14-14-14\---|
D|----------------------------------------| (Thats 12 for those of you who cant count)
A|-12-12-12-12-12-12-12-12-12-12-12-12\---|
D|----------------------------------------|

"I thought we'd make it to the end, brick walker bla bla bla...)

(Vocal riff Guitar 1) 
e|--------------------------------------------------|
B|--------------------------------------------------|
G|--------------------------------------------------|
D|-0-0-------------------------0-0------------------| 2x
A|-0-0------5------------------0-0-----3---------5~-|
D|-0-0-0-56---6-5-0-3-0-3-5-3~-0-0-3-5---5-3-0-0----|

(Vocal riff Guitars 2, 3)
e|--------------------------------------------------|
B|--------------------------------------------------|
G|--------------------------------------------------|
D|-0-0-------------------------0-0------------------| 2x
A|-0-0-------------------------0-0------------------|
D|-0-0-------------------------0-0------------------|

(Guitars 1, 2, 3)
e|--------------------------------|
B|--------------------------------|
G|--------------------------------|
D|-6-5-3---6-5-3---6-5-3---6-5-3--| 
A|-6-5-3---6-5-3---6-5-3---6-5-3--|
D|-6-5-3---6-5-3---6-5-3---6-5-3--|

e|-----------------------------------------------------|
B|-----------------------------------------------------|
G|-----------------------------------------------------|
D|-0-0-0-0-0-3-0--0-0-0-0-0-6-66-5-55-3--3-3-3-3-3-3-3-| 
A|-0-0-0-0-0-3-0--0-0-0-0-0-6-66-5-55-3--3-3-3-3-3-3-3-|
D|-0-0-0-0-0-3-0--0-0-0-0-0-6-66-5-55-3--3-3-3-3-3-3-3-|
     . . . .      . . . . .
play this under the second solo, which i have not figured out yet.

Outro
e|--------------------------------------------------|
B|--------------------------------------------------|
G|--------------------------------------------------|
D|-0-0-------------------------0-0------------------| 4x
A|-0-0------5------------------0-0-----3---------5~-|
D|-0-0-0-56---6-5-0-3-0-3-5-3~-0-0-3-5---5-3-0-0----|

(Vocal riff Guitars 2, 3) (This is synced up with the tab above)
e|--------------------------------------------------|
B|--------------------------------------------------|
G|--------------------------------------------------|
D|-0-0-------------------------0-0------------------| 4x
A|-0-0-------------------------0-0-----3---------5~-|
D|-0-0-------------------------0-0-3-5---5-3-0-0----|



| /  slide up
| \  slide down
| h  hammer-on
| p  pull-off
| ~  vibrato
| +  harmonic
| x  Mute note
===============================================================================
=
comments
print report bad tab
10 comments total. Showing first comments.
0 reply
scarecrow55 wrote on May 29 2007, 06:02 pm

intro is wrong

0 reply
xXSlashXx wrote on July 22 2007, 11:55 pm

it does seem off a little especially in the solo part

0 reply
frozenpxl wrote on August 7 2007, 06:28 pm

yeah, im not perfect. best one here though.

I want to post or [tab]
guest
You may want to rate the tab now too:
select rating
Please do not post tabs as comments. Select "correction" instead!