Oops, an error
Loading. Please wait.

No Good Son Tab

version 1
version 1

Whole song

1,151 views 1 this week
no commentswrite comment
1 2 3 4 5
please rate
add to favorites
launch autoscroll
font size
0
reset
how to read this tab
guitar tuner
Autoscroll
slow
fast
+/-
esc
set tempo
stop
Help us to improve Ultimate-Guitar.com Take our survey!
×
Tuning: drop d
intro and verse
e|----------------------------------------------------------------|
B|----------------------------------------------------------------|
G|----------------------------------------------------------------|
D|-3-5-8-5-0-3-5-3-0-3-5-10-8-------------------------------------|
A|-3-5-8-5-0-3-5-3-0-3-5-10-8-------------------------------------|
E|-3-5-8-5-0-3-5-3-0-3-5-10-8-------------------------------------|

chores chordes 
e|--------------------------------------------------------------|
B|--------------------------------------------------------------|
G|--------------------------------------------------------------|
D|3-5-5-1-5-----------------------------------------------------|
A|3-5-3-3-5-----------------------------------------------------|
E|3-5-----5-----------------------------------------------------|
Suggest correction
Give kudos to tab author, rate the tab!
1 2 3 4 5
comments
print report bad tab
guest
You may want to rate the tab now too:
select rating
Please do not post tabs as comments. Select "correction" instead!