Oops, an error
Loading. Please wait.

No Good Son Tab

version 2
version 2

Whole song

621 views 3 this week
no commentswrite comment
1 2 3 4 5
please rate
add to favorites
launch autoscroll
font size
0
reset
how to read this tab
guitar tuner
Autoscroll
slow
fast
+/-
esc
set tempo
stop
Help us to improve Ultimate-Guitar.com Take our survey!
×
Contributor
Difficulty
Tuning
intermediate
D A D G B E
--------------------------------------------------------------------------
                             NO GOOD SON - Maylene And The Sons Of Disaster
--------------------------------------------------------------------------


Tabbed by: garageking1479
Email: therejected_band@hotmail.com

Tuning: Drop D

Intro/Verse:
e|----------------------------------------------------------------------|
B|----------------------------------------------------------------------|
G|---------3-------------------------5--3-------------------------------|
D|-3-5-x-x-3--5--0-3-0-3-5---3-5-x-x-5--3--5-8-5-5----------------------|
A|-3-5-x-x-1--5--0-3-0-3-5---3-5-x-x-3--1--5-8-5-5----------------------|
D|-3-5-x-x----5--0-3-0-3-5---3-5-x-x-------5-8-5-5----------------------|

First solo: 
e|--------------------------6-----------10-------10-------10------------|
B|-------6--6--6--6-----6-8---8---------13b15----13b15----13b15---------|
G|-5/7--7--7--7--7--7-7-------------------------------------------------|
D|----------------------------------------------------------------------|
A|----------------------------------------------------------------------|
D|----------------------------------------------------------------------|

e|----------------------------------------------------------------------|
B|-13b15br-11----11---------------3-------------------------------------|
G|------------12-----12-------3h5---5-3---5-3---------------------------|
D|--------------------------------------5-------5-----------------------|
A|----------------------------------------------------------------------|
D|----------------------------------------------------------------------|


Rhythm Guitar during solo:
e|----------------------------------------------------------------------|
B|----------------------------------------------------------------------|
G|---------------------------------5--x-3--3-3-3------------------------|
D|-3h5-5-5-5-5-5-5-5-5-5-5-5-5-5-5-5--x-3--3-3-3------------------------|
A|-3h5-5-5-5-5-5-5-5-5-5-5-5-5-5-5-3--x-1--1-1-1------------------------|
D|-3h5-5-5-5-5-5-5-5-5-5-5-5-5-5-5--------------------------------------|

Chorus:
e|----------------------------------------------------------------------|
B|----------------------------------------------------------------------|
G|---------------------------5--x-3--x----------------------------------|
D|-3-3--3-3-3-5--5-5-5-5-5-5-5--x-3--x--5-5-5-5-5-5-5-5-----------------|
A|-3-3--3-3-3-5--5-5-5-5-5-5-3--x-1--x--5-5-5-5-5-5-5-5-----------------|
D|-3-3--3-3-3-5--5-5-5-5-5-5------------5-5-5-5-5-5-5-5-----------------|


Bridge/Guitar Hook: (the other guitar does it one octave above)
e|----------------------------------------------------------------------|
B|----------------------------------------------------------------------|
G|----------------3---------------------------------1-------------------|
D|----------3-------5-3-5-------------------1-3-1-----3-1-3-------------|
A|----1-3-5---5-3-------------------------3-------3---------------------|
E|-5--------------------------------3--6--------------------------------|

e|----------------------------------------------------------------------|
B|----------------------------------------------------------------------|
G|-----------------3----------------------------------------------------|
D|----------3--------5-3-5----------12-12--12-12-10-8-5-10-8--5\--------|
A|----1-3-5----5-3------------------12-12--12-12-10-8-5-10-8--5\--------|
E|-5--------------------------------12-12--12-12-10-8-5-10-8--5\--------|

Second Guitar:
e|-----------------6-3---3--------------------------4-1---1-------------|
B|--------3-6--3-------6--------------------1-4-1-------4---------------|
G|-0--3-5--------5---------------------1--3-----------------------------|
D|----------------------------------3-----------------------------------|
A|----------------------------------------------------------------------|
E|----------------------------------------------------------------------|

e|-----------------6-3---3----------------------------------------------|
B|--------3-6--3-------6------------------------------------------------|
G|-0--3-5--------5------------------------------------------------------|
D|----------------------------------12-12--12-12-10-8-5-10-8--5\--------|
A|----------------------------------12-12--12-12-10-8-5-10-8--5\--------|
E|----------------------------------12-12--12-12-10-8-5-10-8--5\--------|



Second Solo: (Rhythm guitar plays verse)
e|----------------------------------------------------------------------|
B|-6----6----6----6-----------------------------------------------------|
G|-5b7--5pb7-5bp7-5pbr--------5b7br-5---3-------------------------------|
D|------------------------------------5----5-3-5+-----------------------|
A|----------------------------------------------------------------------|
E|----------------------------------------------------------------------|

e|-------------------------------------------------------------6-8b+----|
B|----------------------------------------6----------------6-8----------|
G|-------------------------3h5-------3h5--5b7--5b7-5-3------------------|
D|----3h5---3h5---------3h5---3h5-3h5------------------5----------------|
A|-3h5---3h5----3h5-3h5-------------------------------------------------|
E|----------------------------------------------------------------------|

Order of the song:

Verse 4 times
First Solo
Chorus 4 times
Bridge 2 times
Second Solo
Play chorus 4 times
Play verse 4 times
Play chorus 4 times
Bridge 1 time


Well, that's it, awesome song

************************************

| /   slide up
| \   slide down
| h   hammer-on
| p   pull-off
| ~   vibrato
| +   harmonic
| x   Mute note
| b   Bend
| pb  Pre-bend
| br  Bend release
| pbr Pre-bend release
| brb Bend release bend

************************************
Suggest correction new What's this?
You can suggest a correction to this tab. Community and Mods will review your correction and vote to approve or reject it.
comments
We did not receive enough feedback on this tab! Please rate:
print report bad tab
1 2 3 4 5
guest
You may want to rate the tab now too:
select rating
Please do not post tabs as comments. Select "correction" instead!