Oops, an error
Loading. Please wait.

Oh Lonely Grave Tab

version 1
version 1

Intro

Whole song

6,552 views 1 this week
3 commentsread comments
1 2 3 4 5
x 3
add to favorites
launch autoscroll
font size
0
reset
how to read this tab
guitar tuner
Autoscroll
slow
fast
+/-
esc
set tempo
stop
Help us to improve Ultimate-Guitar.com Take our survey!
×
Very cool song on the new album "III"
I love this intro, so I figured out and figured I'd throw it up on here for anyone 
that wanted to learn a nice little riff.

Legend for this tab:

b = Bend
p = Pull off

Enjoy
-Seth

e|-----------------------------------|
B|-----------------------------------|
G|-----------------------------------|
D|---------0-3p2p0-----0-3b-0---x3---|
A|-------0---------0-2-------0-------|
D|--3bp0-----------------------------|

On the 4th time, play this

e|-----------------------------------|
B|-----------------------------------|
G|-----------------------------------|
D|---------0-3p2p0-------------------|
A|-------0---------0---3-5-----------|
D|--3bp0---------------3-5-----------|

During the part with vocals, instead of the chords there is a small lick that is 
added that I believe goes like this:

e|-----------------------------------|
B|-----------------------------------|
G|--2-0-----0------------------------|
D|------3-2---3--0-------------------|
A|-----------------3-----------------|
D|-------------------3/5-------------|
Suggest correction
Give kudos to tab author, rate the tab!
1 2 3 4 5
comments
print report bad tab
3 comments total.
0 reply
Be-Kind-Rewind 111 Dec 29, 2009 02:05 PM

Thanks man. I love the intro to this song. It reminds me of the song, "man of constant sorrow" (the O Brother Where Art Thou version).

0 reply
adrinhxc 51 Mar 04, 2010 01:40 AM

thats sick
i love the intro of this song, its like almost dead on man, sept theres a slide in a part
i believe theres a slide aroun here
e|-----------------------------------|
B|-----------------------------------|
G|-----------------------------------|
D|---------0-3p2p0-----0-3b-0---x3---|
A|-------0---------0/2-------0-------|
D|--3bp0-----------------------------|

maybe jus me, but yea

0 reply
Just_robb 10 May 15, 2011 05:05 PM

i think you'll find it goes like this and the other part is something like this:

e|-----------------------------------|
B|-----------------------------------|
G|-----------------------------------|
D|---------0-3p2p0-----0-3b-0---x3---|
A|-------0---------0-3-------0-------|
D|--3bp0-----------------------------|

e|------------------------------------------|
B|------------------------------------------|
G|------------------------------------------|
D|-----------------3------------------------|
A|-------3--5--5------5--5--3--5--3---------|
D|--0-0------------------------------5--3b--| and play again dont know the rest but working on it!

guest
You may want to rate the tab now too:
select rating
Wanna post a correction for this tab? Suggest correction