Oops, an error
Loading. Please wait.

Oh Lonely Grave Tab

version 1
version 1

Whole song

1,896 views 6 this week
no commentswrite comment
1 2 3 4 5
please rate
add to favorites
launch autoscroll
font size
0
reset
how to read this tab
guitar tuner
Autoscroll
slow
fast
+/-
esc
set tempo
stop
Help us to improve Ultimate-Guitar.com Take our survey!
×
Author
Difficulty
Tuning
novice
D A D G B E
Oh, Lonely Grave


Great song by an awesome band. Enjoy.



E  :------------------------------------------------|
B  :------------------------------------------------|
G  :------------------------------------------------|
D  :---------0---3---2---0------------0-3---0-------|
A  :-----0-------------------0---2/3----------0-----|
D  :0-------------------------------------------3b--|

   (x3)


E  :----------------------------------------------|
B  :----------------------------------------------|
G  :----------------------------------------------|
D  :---------0---3---2---0------------------------|
A  :-----0-------------------0---3/-5-------------|
D  :0----------------------------3/-5-------------|



E  :-----------------------------------------------|
B  :-----------------------------------------------|
G  :-----------------------------------------------|
D  :---------0---3---2---0-----------0-3---0-------|
A  :-----0-------------------0---2/3---------0-----|
D  :0------------------------------------------3b--|

   (x3)


E  :----------------------------------------------------------------|
B  :----------------------------------------------------------------|
G  :-------------------------------2-0-----0------------------------|
D  :-----------0---3---2---0-----------3-2---3-0--------------------|
A  :-------0-------------------0------------------3-----------------|
D  :--0---------------------------------------------3/-5------------|

   They play the last part of this twice, but the timing is a bit weird. 
   Pay attention to the song, it's not hard to figure out.


E  :-------------------------------------|
B  :-------------------------------------|
G  :-------------------------------------|
D  :-------------------------5/-7--------|
A  :0---x-x5/-7---0-3/-5---0-3/-5--------|
D  :0---x-x5/-7---0-3/-5---0-------------|

   (x4)




E  :---------------------------------------|
B  :---------------------------------------|
G  :---------------------------------------|
D  :---------------------------------------|
A  :----3-5-----8-5----3--5--3-0-----------|
D  :0---------0------0-----------3b--0-----|

   (x3)



E  :-----------------------------------|
B  :-----------------------------------|
G  :-----------------------------------|
D  :-----------------------------------|
A  :----3-5-----8-5----3--5--3-0-3-3---|
D  :0---------0------0-----------3-3---|




E  :-----------------------------------------------------------|
B  :-----------------------------------------------------------|
G  :-----------------------------------------------------------|
D  :-----------------------------------------------------------|
A  :3-----5-----3-----5-----8---5--3-----5-----3-----5-----3-3-|
D  :--0-0---0-0---0-0---0-0---0---0--0-0---0-0---0-0---0-0-3-3-|
      x x   x x   x x   x x   x   x   x x   x x   x x   x x  
   
   (x2)




E  :---------------------------------------------------------------|
B  :---------------------------------------------------------------|
G  :---------------------------------------------------------------|
D  :7-0-0-5-0-0-8-0-0-7-0-0-5-0-7-0-3-0-0-5-0-0-2-0-0-3-0-0-2-0-3-0|
A  :---------------------------------------------------------------|
E  :---------------------------------------------------------------|

E  :--------------------------------------------------------------|
B  :--------------------------------------------------------------|
G  :--------------------------------------------------------------|
D  :7-0-0-5-0-0-8-0-0-7-0-0-5-0-7-0-3-0-0-5-0-0-2-0-0-3-0-0-3~----|
A  :--------------------------------------------------------------|
E  :--------------------------------------------------------------|




E  :-----------------------------------------------------------|
B  :-----------------------------------------------------------|
G  :-----------------------------------------------------------|
D  :-----------------------------------------------------------|
A  :------8-p5-h3-h5-5-p3-p0-3-3--------8-p5-h3-h5-5-p3-p0-5-3-|
D  :0--00--------------------3-3--0--00--------------------5-3-|
   
   (x3)


E  :-----------------------------|
B  :-----------------------------|
G  :-----------------------------|
D  :-----------------------------|
A  :------8-p5-h3-h5-5-p3-p0-3-3-|
D  :0--00--------------------3-3-|
   

E  :-------------------------------------|
B  :-------------------------------------|
G  :-------------------------------------|
D  :-----------------3-h5-p3---3---------|
A  :------8-p5-h3-h5---------5---5p3p0-0-|
D  :0--00------------------------------0-|




   I couldn't figure out the guitar part (if there even is a guitar part) for the interlude.




E  :-------------------------------------|
B  :-------------------------------------|
G  :-------------------------------------|
D  :-------------------------5/-7--------|
A  :0---x-x5/-7---0-3/-5---0-3/-5--------|
D  :0---x-x5/-7---0-3/-5---0-------------|

   (x7)

E  :-------------------------------------|
B  :-------------------------------------|
G  :-------------------------------------|
D  :-------------------------5/-7--------|
A  :0---x-x5/-7---0-3/-5---0-3/-5--0-----|
D  :0---x-x5/-7---0-3/-5---0-------0-----|



Suggest correction
Give kudos to tab author, rate the tab!
1 2 3 4 5
comments
print report bad tab
guest
You may want to rate the tab now too:
select rating
Please do not post tabs as comments. Select "correction" instead!