Oops, an error
Loading. Please wait.

Plenty Strong And Plenty Wrong Tab

7,448 views 9 this week
3 commentsread comments
1 2 3 4 5
accurate
x 3
add to favorites
launch autoscroll
font size
0
reset
how to read this tab
guitar tuner
Autoscroll
slow
fast
+/-
esc
set tempo
stop
Help us to improve Ultimate-Guitar.com Take our survey!
×
Author
Difficulty
Tuning
novice
D A D G B E
-------------------------------------------------------------------------------
                Plenty Strong And Plenty Wrong - Maylene and the Sons of Disaster
-------------------------------------------------------------------------------
Tabbed by: Cj Stevens
Email: frozenpxl@yahoo.com
Myspace: myspace.com/cjstevens
Virb: virb.com/cjstevens


Tuning: Drop D = (High to low) DADGBE

PM or . = Palm Mute
| /  slide up
| \  slide down
| h  hammer-on
| p  pull-off
| ~  vibrato
| +  harmonic
| x  Mute note

(Intro, Guitar 1)
e|-------------------------------------------------------------------------|
B|------------------------------------------------/10~--------7------------|
G|-----------------------------------------------------10-7-7---7-7-10-7-7-|
D|-5/7-----------5-7-7-77-7-5-7-7-77-7-5-7-7-77-7--------------------------|
A|-----7-5-3-5-3-5-7-7-77-7-5-7-7-77-7-5-7-7-77-7--------------------------|
D|---------------5-7-7-77-7-5-7-7-77-7-5-7-7-77-7--------------------------|

e|-------------------------------------------------------------|
B|-/10-8------------------------------/10-8--------------------|
G|-------9-7-5-7-5-5-----7-----10-----------9-7-5-7-5----------|
D|-------------------7-7---7-7----7-7-----------------7~~------|
A|-------------------------------------------------------------|
D|-------------------------------------------------------------|

(Intro, Guitar 2, 3)
e|--------------------------------------------------|
B|--------------------------------------------------|
G|--------------------------------------------------|
D|---------------5-7-7-77-7-5-7-7-77-7-5-7-7-77-7---|
A|---------------5-7-7-77-7-5-7-7-77-7-5-7-7-77-7---|
D|---------------5-7-7-77-7-5-7-7-77-7-5-7-7-77-7---|

e|--------------------------------------------------|
B|--------------------------------------------------|
G|--------------------------------------------------|
D|-5/7-----------5-7-7-77-7-5-7-7-77-7-5-7-7-77-7---|
A|-----7-5-3-5-3-5-7-7-77-7-5-7-7-77-7-5-7-7-77-7---|
D|---------------5-7-7-77-7-5-7-7-77-7-5-7-7-77-7---|

e|-----------------------------------------------------------------|
B|-----------------------------------------------------------------|
G|-----------------------------------------------------------------|
D|-5/7-----------5-7-7-77-7-5-7-7-77-7-5-7-7-77-7---5/7------------|
A|-----7-5-3-5-3-5-7-7-77-7-5-7-7-77-7-5-7-7-77-7-------7-5-3-5-3--|
D|---------------5-7-7-77-7-5-7-7-77-7-5-7-7-77-7------------------|

(Verse 1, Guitar 1 is holding out the last '7' on the D string from the intro for the whole verse)

(Verse 1, Guitar 2)
e|-----------------------------------------------------------|
B|-----------------------------------------------------------|
G|---------------------------------------------5-55-7-77-----|
D|-2-2-2-2-2-2-2-2-5-----7---5---2-2-2-2-2-2-2-5-55-7-77-----| 4x
A|-0-0-0-0-0-0-0-0-3-0-0-5-0-3-0-0-0-0-0-0-0-0---------------|
D|-----------------------------------------------------------|
     . . . . .      p  .  p   p    . . . . . .

(Verse 1, Guitar 3)
e|-----------------------------------------------------------|
B|-----------------------------------------------------------|
G|-2~~-------------------------------------------------------|
D|-2~~-------------------------------------------------------| 4x
A|-0~~-------------------------------------------------------|
D|-----------------------------------------------------------|

(Chorus, Guitars 1, 2, 3)
e|----------------------------------------------------------|
B|----------------------------------------------------------|
G|----------------------------------------------------------|
D|-5-5-5-----5-7-7-7-77-7-7---5-5-5-----5-7-7-7-77-7-7------|
A|-5-5-5-3-0-5-7-7-7-77-7-7---5-5-5-3-0-5-7-7-7-77-7-7------|
D|-5-5-5-----5-7-7-7-77-7-7---5-5-5-----5-7-7-7-77-7-7------|
 
e|----------------------------------------------------------|
B|----------------------------------------------------------|
G|----------------------------------------------------------|
D|-5-5-5-----5-7-7-7-77-7-7---5-5-5-----5-------------------|
A|-5-5-5-3-0-5-7-7-7-77-7-7---5-5-5-3-0-5-------------------|
D|-5-5-5-----5-7-7-7-77-7-7---5-5-5-----5-7~~---------------|

(Verse 2, Guitars 1, 2, 3)
e|------------------------------------------------------|
B|------------------------------------------------------|
G|------------------------------------------------------|
D|--------------------------------------/7-5------------| 4x
A|-0-0--0-7-3-5-0--0-7-3-5-0--0-7-3-5-0------7-5-3-5-0--|
D|------------------------------------------------------|

(Solo, Guitar 1)
e|-------------------------------------------------------------------|
B|-------------------------------------------------------------------|
G|-------------------------------------------------------------------|
D|----12/14-14-12/14-14-12/14-14-12/14-14-12/14-14-12/14-14-12/14-14-|
A|-12----------------------------------------------------------------|
D|-------------------------------------------------------------------|

e|--------------------------------------------------------------------------------------------|
B|--------------------------------------------------------------------------------------------|
G|-------14-------------------------------------------------------------------------12--14-14-|
D|-12-14----14-12-10-12b13-10----10-12p10-10----10-12p10-10----10-10--12-12--14-14------------|
A|----------------------------12-------------12-------------12--------------------------------|
D|--------------------------------------------------------------------------------------------|

e|----------------------------------------------------------------15~~~-15~~~-15~~~-15\-|
B|-13-15-13-17-13h15p13----13-15-13-17-13h15p13----13-15-13-15/17~~~-17~~~-17~~~-17~~~--|
G|----------------------14----------------------14--------------------------------------|
D|--------------------------------------------------------------------------------------|
A|--------------------------------------------------------------------------------------|
D|--------------------------------------------------------------------------------------|

e|-------------------------------------------------------------------------|
B|-13----15--------11-13-13----15-17-15-17-13~~-13-15------15b-13----------|
G|----14----14--12----------14------------------------12~~--------12-10-12-|
D|-------------------------------------------------------------------------|
A|-------------------------------------------------------------------------|
D|-------------------------------------------------------------------------|

(Solo, Guitar 2)
e|---------------------------------------------------------------------------|
B|---------------------------------------------------------------------------|
G|---------------------------------------------------------------------------|
D|---------------------------------------------------------------------------|
A|-3-3-3-0-3-3-3-0-3-3-3-5-5-5b6-----0~-3-3-3-0-3-3-3-0-3-3-3-5-5-5b6-----0~-|
D|-------------------------------3-5----------------------------------3-5----|

e|--------------------------------------------------------------------------------------------|
B|--------------------------------------------------------------------------------------------|
G|--------------------------------------------------------------------------------------------|
D|--------------------------------------------------------------------------3~~----5~~-----5-7|
A|-0-3-3-3-0-3-3-3-0-3-3-3-5-5-5b6-----0~-3-3-3-0-3-3-3-0-3-3-3-5-5-5b6-----3~~3-5-5~~-3p0-5-7|
D|---------------------------------3-5----------------------------------3-5-3~~----5~~-----5-7|

(Solo, Guitar 3)
e|-------------------------------------------------------------------------------------|
B|-------------------------------------------------------------------------------------|
G|-------------------------------------------------------------------------------------|
D|-7\------7\------7\--------------3-5-7\-------7\------7\------7\--------------3-5-7\-|
A|-7\------7\------7\--------------3-5-7\-------7\------7\------7\--------------3-5-7\-|
D|-7\------7\------7\--------------3-5-7\-------7\------7\------7\--------------3-5-7\-|

(Solo, Guitar 3)
e|--------------------------------------------------------------------------------------------|
B|--------------------------------------------------------------------------------------------|
G|--------------------------------------------------------------------------------------------|
D|-7\------7\------7\--------------3-5-7\-------7\------7\------7\----------3~~----5~~-----5-7|
A|-7\------7\------7\--------------3-5-7\-------7\------7\------7\----------3~~3-5-5~~-3p0-5-7|
D|-7\------7\------7\--------------3-5-7\-------7\------7\------7\------3-5-3~~----5~~-----5-7|

(Chorus 2, Guitars 1, 2, 3)
e|--------------------------------------------|
B|--------------------------------------------|
G|--------------------------------------------|
D|-7-7-77-7-7---5-5-5-----5-7-7-7-77-7-7------|
A|-7-7-77-7-7---5-5-5-3-0-5-7-7-7-77-7-7------|
D|-7-7-77-7-7---5-5-5-----5-7-7-7-77-7-7------|
 
e|---------------------------------------------------------------------|
B|---------------------------------------------------------------------|
G|---------------------------------------------------------------------|
D|-5-5-5-----5-7-7-7-77-7-7---5-5-5-----5-7-7-7-77-7-7---5-5-5-----5-7-|
A|-5-5-5-3-0-5-7-7-7-77-7-7---5-5-5-3-0-5-7-7-7-77-7-7---5-5-5-3-0-5-7-|
D|-5-5-5-----5-7-7-7-77-7-7---5-5-5-----5-7-7-7-77-7-7---5-5-5-----5-7-|

(Bridge, Guitars 1, 2, 3)
e|-----------------------------------------------|
B|-----------------------------------------------|
G|-----------------------------------------------|
D|-------7---------------7--------7--------------|
A|-------7----------3-5--7--------7----------5-3-|
D|-7-7-7-7--0-5-7-0------7--7-7-7-7--0-7-5-0-----|
   . . .                    . . .  

e|---------------------------------------------------------------------|
B|---------------------------------------------------------------------|
G|---------------------------------------------------------------------|
D|-7-------7---------------7--------7---------------3~~----5~~-----5-7-|
A|-7-------7----------3-5--7--------7----------5-3--3~~3-5-5~~-3p0-5-7-|
D|-7-7-7-7-7--0-5-7-0------7--7-7-7-7--0-7-5-0------3~~----5~~-----5-7-|
     . . .                    . . . 

(Chorus 3, Guitars 1, 2, 3)
e|--------------------------------------------|
B|--------------------------------------------|
G|--------------------------------------------|
D|-7-7-77-7-7---5-5-5-----5-7-7-7-77-7-7------|
A|-7-7-77-7-7---5-5-5-3-0-5-7-7-7-77-7-7------|
D|-7-7-77-7-7---5-5-5-----5-7-7-7-77-7-7------|
 
e|------------------------------------------------------------------------|
B|------------------------------------------------------------------------|
G|------------------------------------------------------------------------|
D|-5-5-5-----5-7-7-7-77-7-7---5-5-5-----5-7-7-7-77-7-7---5-5-5-----5-7~~~-|
A|-5-5-5-3-0-5-7-7-7-77-7-7---5-5-5-3-0-5-7-7-7-77-7-7---5-5-5-3-0-5-7~~~-|
D|-5-5-5-----5-7-7-7-77-7-7---5-5-5-----5-7-7-7-77-7-7---5-5-5-----5-7~~~-|

 
Suggest correction
What's this?
You can suggest a correction to this tab. Community and Mods will review your correction and vote to approve or reject it.
comments
We did not receive enough feedback on this tab! Please rate:
print report bad tab
1 2 3 4 5
3 comments total.
+1 reply
mark_rose_ 115 wrote on July 8 2007, 12:52 pm

Intro riff after the power chords goes:
x2 end with:
B--10~~~-|-------------------------/10-8-----------|-----------
G--------|-5b------7b------5b------------9-7-5-7-5-|-----------
D--------|----7-77----7-77----7-77-----------------|-7~~~------
(the bends are only very slight)

as well the solo needs some work there are wrong notes.
However, chorus and verses sound pretty good
overall just needs some fine tuning

-1 reply
70'smetalman 234 wrote on December 31 2007, 07:48 pm

they only have two guitars dude....

0 reply
xPURGATORYx 36 wrote on April 16 2008, 08:17 pm

actually they did have three for awhile... i think they are back to only two again though

guest
You may want to rate the tab now too:
select rating
Please do not post tabs as comments. Select "correction" instead!