Oops, an error
Loading. Please wait.

Raised By The Tide Bass Tab

version 1
version 1

Whole song

Interactive

1,065 views 1 this week
2 commentsread comments
1 2 3 4 5
3 more votes to show rating
add to favorites
launch autoscroll
font size
0
reset
guitar tuner
Autoscroll
slow
fast
+/-
esc
set tempo
stop
Help us to improve Ultimate-Guitar.com Take our survey!
×
Author
Difficulty
Tuning
novice
D A D G B E
Drop D

[0:00-0:36]
|--------|
|--------|
|-----5--|
|-0-0----|
only play the open D's sometimes

[0:36-0:55]
|------------------------------|
|----------------------5-3-----|
|--5-5------3-5---3-5-------5--|
|-------3-5--------------------|

[0:56-1:13] *Repeat as neccesary
|---------------------|
|---------------------|
|--5*---3*------------|
|-----------5*---0*---|

[1:14-1:22]
|------|
|------|
|---5--|
|------|

[1:22-1:42]
|----------------------------------------------------|
|----------------------------------------5-3---------|
|--------------------------------------------5-5-----|
|-3-0-0--3-0-0--3/5555555--3-0-0--3-0-0--------------|

[1:42-1:50]
|------------------------------|
|----------------------5-3-----|
|--5-5------3-5---3-5-------5--|
|-------3-5--------------------|

[1:51-2:09] *Repeat as neccesary
|---------------------|
|---------------------|
|--5*---3*------------|
|-----------5*---0*---|

2:12
|------|
|------|
|------|
|--5/0-|

2:38
|-------------------|
|-------------------|
|--------5~-0-3-----|
|--3-5-0--------5---|

[2:55-END] *Repeat as neccesary
|---------------------|
|---------------------|
|--5*---3*------------|
|-----------5*---0*---|


Tabbed by John VandenBroek
Suggest correction
Give kudos to tab author, rate the tab!
1 2 3 4 5
comments
print report bad tab
2 comments total.
0 reply
mark_rose_ 83 Aug 24, 2007 01:53 AM

thats my bro lol sweet tabs dude

0 reply
metal/bassest 10 Aug 29, 2007 07:30 PM

good but the intro and heavy break down thig is wrong...intro is 3bend and pull off and break down is

---------------------------5-3
------------------------------5
3-0-0-3-0-0/555 3-0-0-3-0-0

guest
You may want to rate the tab now too:
select rating
Wanna post a correction for this tab? Suggest correction