Oops, an error
Loading. Please wait.

Raised By The Tide Tab

version 1
version 1

Whole song

Interactive

16,132 views 1 this week
no commentswrite comment
1 2 3 4 5
accurate
x 13
add to favorites
launch autoscroll
font size
0
reset
how to read this tab
guitar tuner
Autoscroll
slow
fast
+/-
esc
set tempo
stop
Help us to improve Ultimate-Guitar.com Take our survey!
×
Author
Difficulty
Tuning
intermediate
D A D G B E
Artist: Maylene And The Sons Of Disaster
Song: "Raised By The Tide"
Album: II
Record Label: Ferret Records

Tuning: Drop-D (DADGBE)

[0:00 - 0:36]
|----------------------------------------------------|
|--------3-----------6--3---------3------------------|
|----------------------------------------------------|
|----------------------------------------------------|
|-0h3h5-----5h0-3h0--------0h3h5-----5h0-3h0---------|
|----------------------------------------------3p0---|



[0:36-0:55]
|---------------------------------------------|
|---------------------------------------------|
|---------------------------------------------|
|---------------------5-3---------------------|
|--5-5-------3-5-3-5-------<5>----------------|
|-------3-5-----------------------------------|
On the SECOND and FOURTH time through this
you play the last note as a pinch harmonic


[0:56-1:13]
|---------------------------------------------|
|---------------------------------------------|
|---------------------------------------------|
|--7---5----5---0-----------------------------|
|--5---3----5---0-----------------------------|
|-----------5---0-----------------------------|


[1:14-1:22]
|----------------------------------------------------|
|--------3-----------6--3---------3------------------|
|----------------------------------------------------|
|----------------------------------------------------|
|-0h3h5-----5h0-3h0--------0h3h5-----5h0-3h0---------|
|----------------------------------------------3p0---|


[1:22-1:42]
|----------------------------------------------------|
|----------------------------------------------------|
|----------------------------------------------------|
|----------------------------------------5-3---------|
|--------------------------------------------5-5-----|
|-3-0-0--3-0-0--3/5555555--3-0-0--3-0-0--------------|


[1:42-1:50]
|---------------------------------------------|
|---------------------------------------------|
|---------------------------------------------|
|---------------------5-3---------------------|
|--5-5-------3-5-3-5-------<5>----------------|
|-------3-5-----------------------------------|


[1:51-2:09]
|---------------------------------------------|
|---------------------------------------------|
|---------------------------------------------|
|--7---5----5---0-----------------------------|
|--5---3----5---0-----------------------------|
|-----------5---0-----------------------------|


[2:10-2:55]
Break/Solo
|--------------------------------------------------|
|--------------------------------------------------|
|--5p2---------------------------------------------|
|------3h5-3h5-------------3h5-5h6p5p3-0-0---------|
|--------------3-5----3h5------------------3-3/5---|
|--------------------------------------------------|

|----------4b------8h5-3---------------------------|
|------3b----------------6-3-6-1-1/3---------------|
|--2h5---------------------------------------------|
|--------------------------------------------------|
|--------------------------------------------------|
|--------------------------------------------------|

|--------------------------------------------------|
|--------------------------------------------------|
|--------------------------------------------------|
|--------------------------------------3-----------|
|-------3-3/5--3-----------------3-3/5---5-3-5~----|
|-0-3h5----------3h5p3-0~--0-3h5-------------------|



[2:55-END]
|---------------------------------------------|
|---------------------------------------------|
|---------------------------------------------|
|--7---5----5---0-----------------------------|
|--5---3----5---0-----------------------------|
|-----------5---0-----------------------------|


Email me: untitled318@gmail.com if you have
any questions regarding the tab or the band
Suggest correction
comments
print report bad tab
guest
You may want to rate the tab now too:
select rating
Please do not post tabs as comments. Select "correction" instead!