Oops, an error
Loading. Please wait.

Raised By The Tide Tab

version 2
version 2

Whole song

Interactive

1,321 views 1 this week
no commentswrite comment
1 2 3 4 5
please rate
add to favorites
launch autoscroll
font size
0
reset
how to read this tab
guitar tuner
Tab Pro tools
  • play this tab
  • loop segment
  • change instrument
  • show fretboard
  • metronome
×
Best way to learn
"Raised By The Tide"
Autoscroll
slow
fast
+/-
esc
set tempo
stop
Contributor
Difficulty
Tuning
novice
D A D G B E
-------------------------------------------------------------------------------
         RAISED BY THE TIDE - Maylene and the Sons of disaster
-------------------------------------------------------------------------------
Tabbed by:
Email:

Tuning:

e|-------------1-------------------|----|-------------1----------------|-----|
B|-----3--------3------3-----------|x's2|-----3--------3------3--------|x's6-|
G|---------------------------------|----|------------------------------|-----|
D|---------------------------------|----|------------------------------|-----|
A|0h3h5-3p0-3p0---0h3h5-3p0-3p0----|----|0h3h5-3p0-3p0---0h3h5-3p0-3p0-|-----|
D|-----------------------------3p0-|----|-----------------------------3|-----|
      riff 1                                   riff 2                 b
e|-----------------------------------------------|---------------------------|
B|-----------------------------------------------|x's2-----------------------|
G|-----------------------------------------------|---------------------------|
D|----------------5-3-------------------5-3------|---------------------------|
A|5-5-----3-5-3-5-----5-5-5-----3-5-3-5-----5----|---------------------------|
D|----3-5-------------------3-5------------------|---------------------------|
           riff3                            *
e|-------------|-------------------------------------------------------------|
B|-------------|x's4---------------------------------------------------------|
G|-------------|-------------------------------------------------------------|
D|7---5--------|-------------------------------------------------------------|
A|5---3---5---0|-------------------------------------------------------------|
D|--------5---0|-------------------------------------------------------------|
   chorus      >>>>    proceed to riff 2 X's 2            
e|-------------------------------------|-------------------------------------|
B|-------------------------------------|x's4---------------------------------|
G|-------------------------------------|-------------------------------------|
D|------------------------------7p5p3p0|-------------------------------------|
A|-------------------------------------|-------------------------------------|
D|3-00-3-00-3h555-3p0-3-00-3-00--------|-------------------------------------|
             riff 4           >>>>>>>>>>>>>       proceed to riff 3 x's 2
e|---------------------------------------------------------------------------|
B|---------------------------------------------------------------------------|
G|---------------------------------------------------------------------------|
D|---------------------------------------------------------------------------|
A|---------------------------------------------------------------------------|
D|---------------------------------------------------------------------------|
>>>>>>>>>> then chorus >>>>>>>>>  then, soon to come solo >>>>>>>>then chorus

you can figure out the times

-peace

| /  slide up
| \  slide down
| h  hammer-on
| p  pull-off
| ~  vibrato
| *  harmonic
| x  Mute note
===============================================================================
comments
We did not receive enough feedback on this tab! Please rate:
print report bad tab
1 2 3 4 5
I want to post or [tab]
guest
You may want to rate the tab now too:
select rating
Please do not post tabs as comments. Select "correction" instead!