Oops, an error
Loading. Please wait.

Raised By The Tide Tab

version 3
version 3

Whole song

Interactive

967 views 3 this week
no commentswrite comment
1 2 3 4 5
accurate
x 2
add to favorites
launch autoscroll
font size
0
reset
how to read this tab
guitar tuner
Tab Pro tools
  • play this tab
  • loop segment
  • change instrument
  • show fretboard
  • metronome
Autoscroll
slow
fast
+/-
esc
set tempo
stop
Contributor
Difficulty
novice
Artist: Maylene And The Sons Of Disaster
Song: "Raised By The Tide"
Album: II
Record Label: Ferret Records

Tuning: Drop-D (DADGBE)

Intro [0:00-0:04]
E|----------------------------------------------------|
B|--------3-----------6-3~--------3-------------------|
G|----------------------------------------------------|
D|----------------------------------------------------| 1x
A|-0h3h5-----5p0-3p0--------0h3h5-----5p0-3p0---------|
D|----------------------------------------------3bp0--|


[0:04-0:32]
E|----------------------------------------------------|
B|--------3-----------6-3~--------3-------------------|
G|----------------------------------------------------|
D|----------------------------------------------------| 6x
A|-0h3h5-----5p0-3p0--------0h3h5-----5p0-3p0---------|
D|----------------------------------------------3b----|


[0:32-0:36]
E|----------------------------------------------------|
B|--------3-----------6-3~--------3------------------|
G|----------------------------------------------------|
D|----------------------------------------------x-x---| 1x
A|-0h3h5-----5p0-3p0--------0h3h5-----5p0-3p0---x-x---|
D|----------------------------------------------x-x---|


[0:36-0:55]
E|----------------------------------------------|
B|----------------------------------------------|
G|----------------------------------------------|
D|---------------------/5-3---------------------| 4x
A|-3/5/5--------3-5-3-5-------5*----------------|
D|--------3-5-----------------------------------|
(only two times you play the last note as a pinch harmonic) 


[0:56-1:13]
E|--5---3--------------------------------------|
B|--7---3--------------------------------------|
G|--7---5--------------------------------------|
D|--7---5----5-5--0----------------------------| 4x
A|--5---3----5-5--0----------------------------|
D|-----------5-5--0----------------------------|


[1:14-1:22]
E|----------------------------------------------------|
B|--------3-----------6-3~--------3-------------------|
G|----------------------------------------------------|
D|----------------------------------------------------| 2x  
A|-0h3h5-----5p0-3p0--------0h3h5-----5p0-3p0---------|
D|----------------------------------------------3b\---|


[1:22-1:41]
E|----------------------------------------------------|
B|----------------------------------------------------|
G|----------------------------------------------------|
D|--------------------------------------------5-3-----| 4x
A|-----------------------------------------------5-5~-|
D|-3-0-0--3-0-0--3/5-5-5-5-5-5-5--3-0-0--3-0-0--------|






[1:41-1:50]
E|----------------------------------------------|
B|----------------------------------------------|
G|----------------------------------------------|
D|---------------------/5-3---------------------| 2x
A|-3/5/5--------3-5-3-5-------5-----------------|
D|--------3-5-----------------------------------|
 

[1:51-2:09]
E|--5---3--------------------------------------|
B|--7---3--------------------------------------|
G|--7---5--------------------------------------|
D|--7---5----5-5--0----------------------------| 4x
A|--5---3----5-5--0----------------------------|
D|-----------5-5--0----------------------------|


Solo [2:12-2:27]
E|--------------------------------------------------|
B|--------------------------------------------------|
G|--5p2---------------------------------------------|
D|------3h5-3h5-------------3h5-5h6p5p3-0-----------|
A|--------------3-5----3h5-----------------3-5------|
D|--------------------------------------------------|

E|-----------------8p5------------------------------|
B|------5h7-7~--8b------8-----6---------------------|
G|-3h5--------------------5p7---5-7~----------------|
D|--------------------------------------------------|
A|--------------------------------------------------|
D|--------------------------------------------------|


[2:27-2:54]
E|--------------------------------------------------|
B|--------------------------------------------------|
G|--------------------------------------------------|
D|-----------------------------------5--------------| 3x
A|-------3-5~--3----------------3-5~---5p3-5~-------|
D|-0-3h5--------5-3-0-----0-3h5---------------------|



[2:55-3:44]
E|--5---3--------------------------------------|
B|--7---3--------------------------------------|
G|--7---5--------------------------------------|
D|--7---5----5-5--0----------------------------| 4x
A|--5---3----5-5--0----------------------------|
D|-----------5-5--0----------------------------|


* Pinch Harmonic
~ Vibrato
h Hammer On
p Pull Off
- Palm Mute
/ Slide Up
\ Slide Down
b Bend
x Muted Note
comments
We did not receive enough feedback on this tab! Please rate:
print report bad tab
1 2 3 4 5
I want to post or [tab]
guest
You may want to rate the tab now too:
select rating
Please do not post tabs as comments. Select "correction" instead!