Oops, an error
Loading. Please wait.

Settling Scores By Burning Bridges Tab

347 views 3 this week
no commentswrite comment
1 2 3 4 5
please rate
add to favorites
launch autoscroll
font size
0
reset
how to read this tab
guitar tuner
Tab Pro tools
  • play this tab
  • loop segment
  • change instrument
  • show fretboard
  • metronome
Autoscroll
slow
fast
+/-
esc
set tempo
stop
Contributor
Tuning
D A D G B E
-----------------------------------------------------------------
Settling Scores By Burning Bridges - Maylene & The Sons of Disaster
-----------------------------------------------------------------
Tabbed by: Jake Miller
Email: millarso2.0@gmail.com
Tuning: Drop D

Section 1
All Guitars
e|------------------------------------------------------|
B|------------------------------------------------------|
G|------------------------------------------------------|
D|------3p0----5s7---5s7---3-------3p0----5s7---5s7---6-|x4
A|-------------3s5---3s5---3--------------3s5---3s5---6-|
D|-0-00-----00-----0-----0-3--0-00-----00-----0-----0-6-|
   . ..     ..     .     .    . ..     ..     .     .

Section 2
All Guitars
e|----------------------------------------------------------|
B|----------------------------------------------------------|
G|---------7----------------7-------------------------------|
D|-0-3-6-0---6-3-6--0-3-6-0---6-3-6------3p0----------------|
A|-------------------------------------------3h5-5-3p0-3p0--|
D|-----------------------------------0-00-----------------3-|

e|----------------------------------------------------------|
B|----------------------------------------------------------|
G|---------7----------------7-------------------------------|
D|-0-3-6-0---6-3-6--0-3-6-0---6-3-6------3p0----------------|
A|-------------------------------------------3h5-5/10-8~----|
D|-----------------------------------0-00-------------------|

e|----------------------------------------------------------|
B|----------------------------------------------------------|
G|---------7----------------7-------------------------------|
D|-0-3-6-0---6-3-6--0-3-6-0---6-3-6------3p0----------------|
A|-------------------------------------------3h5-5-3p0-3p0--|
D|-----------------------------------0-00-----------------3-|

e|---------------------------------------|
B|---------------------------------------|
G|---------7----------------7------------|
D|-0-3-6-0---6-3-6--0-3-6-0---6-3-6--6---|
A|-----------------------------------6---|
D|-----------------------------------6---|

Section 3
e|------------------------------------------------------------------------|
B|------------------------------------------------------------------------|
G|------------------------------------------------------------------------|
D|-0-3-5-3-0---------------------------------------------0-3-5-3-0--------|x2
A|-0-3-5-3-0-(play-harmonics-while-moving-up-the-string)-0-3-5-3-0-(same)-|
D|-0-3-5-3-0---------------------------------------------0-3-5-3-0--------|

Solo 1
Guitar 1 (w/ wah)
e|----------------------------------------------------------------|
B|----------------------------------------------------------------|
G|-12b14-14(x11)-14r12-10------------------------12-12b13r12--12b-|
D|-----------------------12-12--------------12-15-----------15----|
A|----------------------------15p12-15p12-15----------------------|
D|----------------------------------------------------------------|
                                           . .  . .
e|---------------------------------------------------------------12b-16b~-|
B|-----------------------------------------------------------13b----------|
G|-12p10--10h12p10--10h12p10--10h12p10--10h12p10---10-12-14---------------|
D|------12--------12--------12--------12--------12------------------------|
a|------------------------------------------------------------------------|
D|------------------------------------------------------------------------|

Guitar 2
e|---------------------------------------------------------------|
B|---------------------------------------------------------------|
G|---------------------------------------------------------------|
D|-0--0-3-0-3-5-3-0-6-6-6-5-5-3--0--0-3-0-3-5-3-0-6-6-6-5--5-5-7-|
A|-0--0-3-0-3-5-3-0-6-6-6-5-5-3--0--0-3-0-3-5-3-0-6-6-6-5--3-3-5-|
D|-0--0-3-0-3-5-3-0-6-6-6-5-5-3--0--0-3-0-3-5-3-0-6-6-6-5--------|

e|---------------------------------------------------------------|
B|---------------------------------------------------------------|
G|---------------------------------------------------------------|
D|-0--0-3-0-3-5-3-0-6-6-6-5-5-3--0--0-3-0-3-5-3-0-6-6-6-5--3-0---|
A|-0--0-3-0-3-5-3-0-6-6-6-5-5-3--0--0-3-0-3-5-3-0-6-6-6-5--3-0---|
D|-0--0-3-0-3-5-3-0-6-6-6-5-5-3--0--0-3-0-3-5-3-0-6-6-6-5--3-0---|

Section 4 (can't quite make out the remainder of the lead part here, probably still 
messing around with the same pentatonic as the solo)
e|----------------------------|
B|----------------------------|
G|-7--------------------------|
D|-7(x16)-5-----6-6-6-5-5-3-3-|x2
A|-5------5(x8)-6-6-6-5-5-3-3-|
D|--------5-----6-6-6-5-5-3-3-|

Section 5
e|-------------------------------------|
B|-------------------------------------|
G|-------------------------------------|
D|-------------------------------------|x4
A|-----------------------------3-0-5b*-|(no PH on last 5, let it ring)
D|-0--0-3-0-6--5--0--0-3-0-5-0---------|

Section 6 (a lot of different guitar parts, listen to the track for when to play the 
parts below)
Guitar 1
e|-12----------12-----------------|
B|----15----------15--------------|
G|-------14~---------14-12~-------|
D|----------------------------7~--|
A|--------------------------------|
D|--------------------------------|

Guitar 2
e|--------------------------------------------------|
B|--------------------------------------------------|
G|--------------------------------------------------|
D|-(7)------5----------5--7----10--5----------5--7--|
A|-(5)------3----------3--5-----8--3----------3--5--|
D|--------------------------------------------------|

Guitar 3
e|-----------------|
B|-----------------|
G|-7-7-7-7-7-7-7-7-|
D|-----------------|(guitar 3 does this for the entirety of this section)
A|-----------------|
D|-----------------|
   . . . . . . . .

Guitar 4
e|----------------12~----------|
B|-13~---12~---13--------------|
G|----------------------10-----|
D|-------------------------12~-|
A|-----------------------------|
D|-----------------------------|

e|-17-18-15-17-15-13----------------------------------------------------------------|
B|------------------15~--18-17-15-13-15---------------------------------------------|
G|-------------------------------------14~--12------14------------------------------|
D|----------------------------------------------15---15-12~--12------------12-15-12-|
A|--------------------------------------------------------------15-12-15-15---------|
D|----------------------------------------------------------------------------------|

Section 7
e|-------------------------|
B|-------------------------|
G|-------------------------|
D|-------------------------|x2
A|-----------3-------------|
D|-0-3-0-3-0---0-3-5-6-5-3-|

e|-------------------------|
B|-------------------------|
G|-------------------------|
D|-----------5-------------|x2
A|-0-3-0-3-0-3-0-3-5-6-5-3-|
D|-0-3-0-3-0---0-3-5-6-5-3-|

Solo 2
Guitar 1
e|---------------------------------------------------------------------------------------|
B|-------------------------18-18-17-18-17p15--15~--------------------------10-12-10-12*~-|
G|-12p10---14p12---17p14--------------------17-----12~-10--12p10--10~-10-12--------------|
D|------12------15------17--------------------------------------12-----------------------|
A|---------------------------------------------------------------------------------------|
D|---------------------------------------------------------------------------------------|

e|---------------------------------------------------------------|
B|-10-15\10--13\8--10\6--8\3-1-3---------------------------------|
G|---------------------------------------------------------------|(The octaves are 
probably 2 separate guitars
D|--7-12\7---10\5---7\3--5\0---0---------------------------------|
A|---------------------------3-----------------------------------|
D|---------------------------------------------------------------|

(Not 100% on this part)
e|---------------------------------------------------------------------10h12h13-17b-17~|
B|-------------------------------------------------------------10h11h13----------------|
G|-10---------109999-12101010-14121012--------12h14p12-10h12h14------------------------|
D|----12101010------------------------10h12h14-----------------------------------------|
A|-------------------------------------------------------------------------------------|
D|-------------------------------------------------------------------------------------|

Guitar 2
e|------------------------------------------------|
B|------------------------------------------------|
G|------------------------------------------------|
D|------3p0-----------------------3p0-------------|(repeat until end of solo)
A|----------3h5-5-3p0-3p0-------------3h5-5-3p0---|
D|-0-00-------------------3--0-00---------------3-|

Section 1 (x1)
Section 2 (x1)
On 4th bar of Section 2, remove the 6 power chord at the end and go straight into...

Section 8
Guitar 1
e|-(/10~)--------------13\10~---------------/10~-------|
B|-1st-time--------------------------------------------|
G|--only-----------------------------------------------|
D|-----------------------------------------------------|x3
A|-----------------------------------------------------|
D|-----------------------------------------------------|

Guitar 2
e|-----------------------------------------------------|
B|-----------------------------------------------------|
G|-----5-7----------------------5-7--------------------|
D|-0-0-5-7--0-0---------3-0-0-0-5-7-0-3-0---12\--0-3-0-|x3
A|-0-0-3-5--0-0---0-3-5-----0-0-3-5-0-3-0---12\--0-3-0-|
D|-0-0------0-0-------------0-0-----0-3-0---12\--0-3-0-|
Let the notes ring on the final repeat.

This was a tough one. My first solo tabbed. Might be rough.
Please rate & comment.
Thanks,
millarso
comments
We did not receive enough feedback on this tab! Please rate:
print report bad tab
1 2 3 4 5
I want to post or [tab]
guest
You may want to rate the tab now too:
select rating
Please do not post tabs as comments. Select "correction" instead!