Oops, an error
Loading. Please wait.

Step Up Tab

version 1
version 1

Intro

Solo

Whole song

Interactive

17,558 views 24 this week
1 commentread comment
1 2 3 4 5
accurate
x 3
add to favorites
launch autoscroll
font size
0
reset
how to read this tab
guitar tuner
Tab Pro tools
  • play this tab
  • loop segment
  • change instrument
  • show fretboard
  • metronome
Autoscroll
slow
fast
+/-
esc
set tempo
stop
Contributor
Difficulty
intermediate
Intro

e|------------------------------------------|
B|------------------------------------------|
G|--0-0--2s3-0--0-3s5-0--0-2s3-0-0--2s12----|
D|--0-0--2s3-0--0-3s5-0--0-2s3-0-0--2s12----|
A|------------------------------------------|
E|------------------------------------------|

First Guitar Lead
e|--------------------------------------------------------------------|
B|-----------------------------------------------------------8--------|
G|-------------3------------------------------3------3---5s7---5-3----|
D|-5-5-3-0-5-0---5--55-5-5p3p0------0-3-0-5-0---5--5---5--------------|
A|-----------------------------1--------------------------------------|
E|-------------------------------3------------------------------------|

Then the guitars drop out and the banjo picks something like this during the verse:
d|---------------------|
B|---------------------|
g|-------0-0-----0--0--|
D|-3s5--5-5---5s8--3---|
G|---------------------|

First Guitar Lead again

Verse again w/ solos:
e|--------------8~------------18b19------|
B|---------5s7---------------------------|
G|---------------------------------------|
D|---------------------------------------|
A|---------------------------------------|
E|---------------------------------------|

Chorus

e|------------------------------------------------|
B|------------------------------------------------|
G|----------------------------------2s12----------|
D|----------------5-----------------2s12----------|
A|--5--5-5-5-5--5-3-5-5--5-5-5-5--5---------------|
E|--3--3-6-3-3--3---3-3--3-6-3-3--3---------------|

Back to the verse again:
e|---------------------------------------|
B|-8--11~-----13p11--8h11p8~-------------|  Then do slides down the neck
G|---------------------------------------|
D|---------------------------------------|
A|---------------------------------------|
E|---------------------------------------|

Chorus again

First Guitar Lead again

then
e|---------------------------------------------------------------------------|
B|---------------------------------------------------------------------------|
G|---------------------------------------------------------------------------|
D|---------------------5----------------------------------5------------------|
A|-10-8--5-5-5--5-5--5-3--5-5--5-5-5--3-4---5-5-5--5-5--5-3--5-5--5-5-5--10-8|
E|-8--6--3-3-6--3-3--3----3-3--3-6-3--1-2---3-3-6--3-3--3----3-3--3-6-3--8--6|

e|---------------------------------------|
B|---------------------------------------|  
G|---------------------------------------|
D|--5p3p0--------------------------------|
A|--------5p3p1-3p1----------------------|
E|------------------3-6p5p3--------------|

Then Chorus but every other time play
e|-------------------------------------------|
B|-------------------------------------------|
G|-------------------------------------------|
D|--------------5--------------5p3p0---------|
A|--5--5-5-5--5-3-5--5-5-5--5--------3p1-----|
E|--3--3-6-3--3---3--3-6-3--3------------3---|

Outro
e|--------------------------------------------------------|
B|--------------------------------------------------------|  
G|--------------------------------------------------------|
D|--5p3p0-------------------------------------------------|
A|--------5p3p1-3p1-----------5--5-5-5--5-5-3-5-----------|
E|------------------3-6p5p3---3--3-6-3--3-3-1-3-----------|

comments
We did not receive enough feedback on this tab! Please rate:
print report bad tab
1 2 3 4 5
1 comment total.
0 reply
Brandonata wrote on September 16 2012, 05:15 pm

What about the solo at the end?

I want to post or [tab]
guest
You may want to rate the tab now too:
select rating
Please do not post tabs as comments. Select "correction" instead!