Oops, an error
Loading. Please wait.

The Road Home To Panther Creek Bass Tab

version 1
version 1

Whole song

Interactive

550 views 3 this week
2 commentsread comments
1 2 3 4 5
please rate
add to favorites
launch autoscroll
font size
0
reset
guitar tuner
Autoscroll
slow
fast
+/-
esc
set tempo
stop
Help us to improve Ultimate-Guitar.com Take our survey!
×
Author
Difficulty
Tuning
novice
D A D G B E
Band: Maylene and the Sons of Disaster
Song: The Road Home to Panther Creek
Album: Maylene and the Sons of Disaster
Year: 2005
Tab: MustangMan311



G|----------------------------|
D|----------------------------|
A|----------------------------|
D|-0-0-0-0--------------------|

G|----------------------------|
D|----------------------------|
A|----------------------------|
D|-0-0------------------------|x3

G|----------------------------|
D|----------------------------|
A|----------------------------|
D|-00000000-00000000----------|

G|---------------------------------------------|
D|---------------------------------------------|
A|---------------------------------------3h5-5-|
D|-00-8-7-5-3-3h5p3-0---00-8-7-5-3-3h5p3-------|x2

G|----------------------------|
D|----------------------------|
A|----------------------------|
D|-8888-7777--5555-0000-------|

G|-----------------------------------|
D|-----------------------------------|
A|-555-3-0---------------------------|
D|---------555-3-0000000000000000----|x8

G|----------------------------|
D|----------------------------|
A|----------------------------|
D|-6-5-3-0--00300030----------|x4

G|----------------------------|
D|----------------------------|
A|----------------------------|
D|-6-5-3-0--0000000000--------|x4

G|----------------------------|
D|----------------------------|
A|----------------------------|
D|-6-5-3-0~-------------------|x12

G|----------------------------|
D|----------------------------|
A|----------------------------|
D|-6-5-3-0--003000300030------|x4

G|----------------------------|
D|----------------------------|
A|----------------------------|
D|-6-5-3-0~-------------------|x4
Suggest correction
What's this?
You can suggest a correction to this tab. Community and Mods will review your correction and vote to approve or reject it.
comments
We did not receive enough feedback on this tab! Please rate:
print report bad tab
1 2 3 4 5
2 comments total.
0 reply
VersA 26 wrote on July 12 2008, 07:05 pm

Not too accurate at the beginning.

I think it should be like this, if you listen to it, the bass cuts out, and the guitar goes on, instead of the way you have it where the bass continues on with the guitar.

 
G|----------------------------|
D|----------------------------|
A|----------------------------|
D|-0-0-0-0--------------------|

G|----------------------------|
D|----------------------------|
A|----------------------------|
D|-0-0------------------------|x3

G|----------------------------|
D|----------------------------|
A|----------------------------|
D|-000000000000---------------|


Here we go again...
G|----------------------------|
D|----------------------------|
A|----------------------------|
D|-00-8-7-5-3-----------------|x4

G|----------------------------|
D|----------------------------|
A|----------------------------|
D|-88-77-55-00----------------| x2



You added way too many notes in some parts to.

0 reply
VersA 26 wrote on July 12 2008, 07:41 pm

Whoops forgot to add the rest of it.

G|-----------------------------------|
D|-----------------------------------|
A|-555-3-0---------------------------|
D|---------555-3-000000000000--------| x3

G|----------------------------------------------------------------------|
D|----------------------------------------------------------------------|
A|----------------------------------------------------------------------|
D|-6-5-3-0--000000000-35-00000000-6-5-3-0-000000000-35-00000000-6-5-3-0-| x1

G|----------------|
D|----------------|
A|----------------|
D|03030303-6-5-3-0| x4
Might just be D|0000000-6-5-3-0|, I'm unsure.

*Rest*
Guitar does 3 parts on its own.

Then on the 4th time bass comes in:
G|----------------|
D|----------------|
A|----------------|
D|6-5-3-0---------|x9

G|--------------------|
D|--------------------|
A|--------------------|
D|6-5-3-0--00300030---|x4

G|----------------|
D|----------------|
A|----------------|
D|6-5-3-0---------|x4

guest
You may want to rate the tab now too:
select rating
Please do not post tabs as comments. Select "correction" instead!